PrimaNota.ru - самый крупный в мире бесплатный архив песенных текстов, аккордов, табулатур и нот


Decemberists - Tain (album) - таба, видео

Регистрация Запомнить меня
Войти через:  Facebook Google Twitter Vk Yandex Mail.ru

Decemberists - Tain (album) - таба, видео

Печатать
Просмотров: 82
Уроки эстрадного вокала в Санкт-Петербурге
Parts not labeled as "originally tabbed by" were tabbed by me. 

Part 1&2 originally tabbed by: paulsmithII 


*Part 1*

e|--------------------------------|
B|--------------------------------|
G|--------------------------------|
D|--------------------------------| x2
A|------2-1h2p1----------2-5-6-7--|
E|--0-3----------3-0--3-----------|

e|---------------------------------------------------------|
B|---------------------------------------------------------|
G|---------------------------------------------------------|
D|-----------------------------2-0-2-----------------------|x1 per line
A|-------2-1h2p1---------0-2----------------2-1h2p1--------|
E|--0-3-----------3p0--3-----0----------0-3----------3--0-3|

VERSE 1

Here upon this pillow
Made of reed and willow
You're a fickle little twister
Are you sweet on your sister?
Your fallow won't leave you alone.

e|--------------------------------|
B|--------------------------------|
G|--------------------------------|
D|--------------------------------| x2
A|------2-1h2p1----------2-5-6-7--|
E|--0-3----------3-0--3-----------|

e|---------------------------------------------------------|
B|---------------------------------------------------------|
G|---------------------------------------------------------|
D|-----------------------------2-0-2-----------------------|x1
A|-------2-1h2p1---------0-2----------------2-1h2p1--------|
E|--0-3-----------3p0--3-----0----------0-3----------3--0-3|

VERSE 2

And granted for their pleasure
Possessions laid to measure
She's a salty little pisser
With your cock in her kisser
But now she's a will of her own

e|--------------------------------|
B|--------------------------------|
G|--------------------------------|
D|--------------------------------| x2
A|------2-1h2p1----------2-5-6-7--|
E|--0-3----------3-0--3-----------|

e|---------------------------------------------------------|
B|---------------------------------------------------------|
G|---------------------------------------------------------|
D|-----------------------------2-0-2-----------------------|x1
A|-------2-1h2p1---------0-2----------------2-1h2p1--------|
E|--0-3-----------3p0--3-----0----------0-3----------3--0-3|

*Part 2*

INTRO 

(E5 C5 D5)x2

VERSE 1

E5
Damn your ankles and eyes wide
         C5                  D5        E5
From you fingernails to your ponytails too.
E5
King of the insects and the m-5
     C5               D5        E5
Over Charlemagne in a motorcade too.

PRE-CHORUS

    D5           G5  E5
And baby needs a new prize
D5           G5            E5
Baby needs a new and shiny prize.

CHORUS

      E5      E5/C
In this place called heavenly
E5       C5
You were born here.
    E5     E5/C
This place called heavenly
E5       C5
You were born here.
         D5
You were born here.
E5 C5 D5

VERSE 2

    E5
And now all the marchers descend from high
       C5              D5               E5
I will dedicate all of my awakenings to this
    E5
And damn all the angles that oppress my sight
       C5                         D5      E5
I will bleed your heart through a samovar soon.

PRE-CHORUS

D5           G5  E5
Baby needs a new prize
D5           G5            E5
Baby needs a new and shiny prize.

CHORUS

      E5      E5/C
In this place called heavenly
E5       C5
You were born here.
    E5     E5/C
This place called heavenly
E5       C5
You were born here.
         D5
You were born here.
         C5          Em
You were born here.

*Part 3*

INTRO

(Em Cmaj7 D C) x2

VERSE 1

Em                        Cmaj7
They settled dust in your hair
   D                   C
To watch you shake and shout it out.
Em                 Cmaj7
With our armaments bared
   D                 C
We shed our bags and travel-alls.

Em Cmaj7 D C

VERSE 2

Em                  Cmaj7
From the lee of the wall
   D                          C
He comes in the change and the chariot
Em                     Cmaj7
And all his eunuchs in thrall
    D                        C
Can scarce lift his line and lariat.

CHORUS

B
Here come loose the hounds
   A
To blow me down.
            (E  A) x3
Blow me down.
B
On this stretch of ground
     A
I'll lay me down.
            Ab
Lay me down.
          F#
To sleep.
(Em Cmaj7 D C) x2

VERSE 3

Em                    Cmaj7
And now stricken with pangs
     D                      C
That tear at our backs like thistle down
Em                       Cmaj7
The mirror's soft silver tain
  D                   C
Reflects our last and birthing hour

CHORUS

B
Here come loose the hounds
   A
To blow me down.
            E A E A
Blow me down.
B
On this stretch of ground
     A
I'll lay me down.
            Ab
Lay me down.

CHORUS

B
Here come loose the hounds
   A
To blow me down.
            E A E A
Blow me down.
B
On this stretch of ground
     A
I'll lay me down.
            Ab
Lay me down.
          F#
To sleep.

*Part 4*

INTRO

e|------------------------------------------------|------------------------------------------------|
B|------------------------------------------------|------------------------------------------------|
G|--------6-------6---------------6---------------|---------6-------6---------------6--------------|
D|--------7-------7---------------7---------------|---------7-------7---------------7--------------|
A|9-----------------------8-----------------------|9-----------------------8-----------------------|
E|------------------------------------------------|------------------------------------------------|

e|------------------------------------------------|------------------------------------------------|
B|------------------------------------------------|------------------------------------------------|
G|--------6-------6-------6---7---6---------------|--------6-------6---------------6---------------|
D|--------7-------7---------------------7---------|--------7-------7---------------7---------------|
A|9-----------------------8-----------------------|9-----------------------8-----------------------|
E|------------------------------------------------|------------------------------------------------|

VERSE 1

e|------------------------------------------------|------------------------------------------------|
B|------------------------------------------------|------------------------------------------------|
G|--------6-------6---------------6-------6-------|--------6-------6---------------6-------6-------|
D|--------7-------7---------------7-------7-------|--------7-------7---------------7-------7-------|
A|9-----------------------8-----------------------|7-----------------------6-----------------------|
E|------------------------------------------------|------------------------------------------------|
Oh the wind            is      blowing,        it       hurts your    skin            as you

e|------------------------------------------------|-------------------------------------------|
B|------------------------------------------------|-------------------------------------------|
G|--------7-------7---------------7-------7-------|--------6-------6---------------6-------6--|
D|--------6-------6---------------6-------6-------|--------6-------6---------------6-------6--|
A|5-----------------------8-----------------------|4-----------------------4------------------|
E|------------------------------------------------|-------------------------------------------|
       Climb           up      hillside,                forest and     fen.

e|------------------------------------------------|------------------------------------------------|
B|------------------------------------------------|------------------------------------------------|
G|--------6-------6---------------6-------6-------|--------6-------6---------------6-------6-------|
D|--------7-------7---------------7-------7-------|--------7-------7---------------7-------7-------|
A|9-----------------------8-----------------------|7-----------------------6-----------------------|
E|------------------------------------------------|------------------------------------------------|
  Your arms full  of           lullabies,               orchids and     wine               your

e|------------------------------------------------|-------------------------------------------|
B|------------------------------------------------|-------------------------------------------|
G|--------7-------7---------------7-------7-------|--------6-------6---------------6-------6--|
D|--------6-------6---------------6-------6-------|--------6-------6---------------6-------6--|
A|5-----------------------8-----------------------|4-----------------------4------------------|
E|------------------------------------------------|-------------------------------------------|
      Memories                wrapped within           paper  and     twine.

CHORUS

e|------------------------------------------------|------------------------------------------------|
B|------------------------------------------------|------------------------------------------------|
G|--------4-------4---------------4-------4-------|--------4-------4---------------4-------4-------|
D|--------4-------4---------------4-------4-------|--------4-------4---------------4-------4-------|
A|------------------------------------------------|------------------------------------------------|
E|6-----------------------5-----------------------|4-----------------------3-----------------------|
   The room that you           lie in          is       dusty and     hard

e|------------------------------------------------|---------------------------|
B|------------------------------------------------|---------------------------|
G|--------6-------6---------------6-------6-------|--------6-------6----------|
D|--------7-------7---------------7-------7-------|--------7-------7----------|
A|9-----------------------8-----------------------|7-----------------------6--|
E|------------------------------------------------|---------------------------|
       Sleeping        soft    babies               on  piles of      yards

e|------------------------------------------------|------------------------------------------------|
B|------------------------------------------------|------------------------------------------------|
G|--------4-------4---------------4-------4-------|--------4-------4---------------4-------4-------|
D|--------4-------4---------------4-------4-------|--------4-------4---------------4-------4-------|
A|------------------------------------------------|------------------------------------------------|
E|6-----------------------5-----------------------|4-----------------------3-----------------------|
   Of gingham,                 taffeta,                 cotton and     silk

e|------------------------------------------------|---------------------------|
B|------------------------------------------------|---------------------------|
G|--------6-------6---------------6-------6-------|--------6-------6----------|
D|--------7-------7---------------7-------7-------|--------7-------7----------|
A|9-----------------------8-----------------------|7-----------------------6--|
E|------------------------------------------------|---------------------------|
  Your dry     hung -  ry      mouths cry           for                          your mother's milk

e|---------------------------------------------------------------------------------------|
B|---------------------------------------------------------------------------------------|
G|-----2---2-------2--------6---6-------6---------1---1-------1--------6---6---6---------|
D|---4---4---4---4--------7---7---7---7---------3---3---3---3----7---7---7---7-----------|(x2)
A|-5-----------5--------9-----------9---------4-----------4--------9-------------9-------|
E|---------------------------------------------------------------------------------------|

e|----------------------------------------------------------------------|
B|----------------------------------------------------------------------|
G|-----4---4-------4--------8---8--------8--------3---3-------3--4------|
D|---6---6---6---6--------9---9---9----9--------5---5---5---5------6----| (x2)
A|-7-----------7-------11-----------11--------6-----------6-------------|
E|----------------------------------------------------------------------|

e|---------------------------10-11-12-13-14-13-12-11-10----------------------------|
B|---------------11-12-13-14-----------------------------14-13-12-11---------------|
G|0--11-12-13-14-----------------------------------------------------14-13-12-11---|
D|0--------------------------------------------------------------------------------|
A|---------------------------------------------------------------------------------|
E|---------------------------------------------------------------------------------|
                                     
e|-9-10-9-8-9-10-9-7-------------------|
B|-------------------10-9-7-9-7-6-7----|
G|----------------------------------6--|
D|-------------------------------------|
A|-------------------------------------|
E|-------------------------------------|

e|---------------------------10-11-12-13-14-13-12-11-10----------------------------|
B|---------------11-12-13-14-----------------------------14-13-12-11---------------|
G|0--11-12-13-14-----------------------------------------------------14-13-12-11---|
D|0--------------------------------------------------------------------------------|
A|---------------------------------------------------------------------------------|
E|---------------------------------------------------------------------------------|

e|----9-10-9-8-9-10-9-7-------------|
B|----------------------10-9-7---7--|
G|-----------------------------6----|
D|----------------------------------|
A|----------------------------------|
E|----------------------------------|

VERSE 2

e|------------------------------------------------|------------------------------------------------|
B|------------------------------------------------|------------------------------------------------|
G|--------6-------6---------------6-------6-------|--------6-------6---------------6-------6-------|
D|--------7-------7---------------7-------7-------|--------7-------7---------------7-------7-------|
A|9-----------------------8-----------------------|7-----------------------6-----------------------|
E|------------------------------------------------|------------------------------------------------|
When the dawn comes to         greet you,        you'll rise with clothes on

e|------------------------------------------------|------------------------------------------------||
B|------------------------------------------------|------------------------------------------------||
G|--------7-------7---------------7-------7-------|--------6-------6---------------6-------6-------:|
D|--------6-------6---------------6-------6-------|--------6-------6---------------6-------6-------:|
A|5-----------------------8-----------------------|4-----------------------4-----------------------||
E|------------------------------------------------|------------------------------------------------||
   And advance with       the others,                   singing old     songs

e|------------------------------------------------|------------------------------------------------|
B|------------------------------------------------|------------------------------------------------|
G|--------6-------6---------------6-------6-------|--------6-------6---------------6-------6-------|
D|--------7-------7---------------7-------7-------|--------7-------7---------------7-------7-------|
A|9-----------------------8-----------------------|7-----------------------6-----------------------|
E|------------------------------------------------|------------------------------------------------|
    Cattle          and     maidens         and      withered old     queens.

e|------------------------------------------------|------------------------------------------------||
B|------------------------------------------------|------------------------------------------------||
G|--------7-------7---------------7-------7-------|--------6-------6---------------6-------6-------:|
D|--------6-------6---------------6-------6-------|--------6-------6---------------6-------6-------:|
A|5-----------------------8-----------------------|4-----------------------4-----------------------||
E|------------------------------------------------|------------------------------------------------||
       Mu  -           sic     carry           you      on.

e|------------------------------------------------|------------------------------------------------|
B|------------------------------------------------|------------------------------------------------|
G|--------4-------4---------------4-------4-------|--------4-------4---------------4-------4-------|
D|--------4-------4---------------4-------4-------|--------4-------4---------------4-------4-------|
A|------------------------------------------------|------------------------------------------------|
E|6-----------------------5-----------------------|4-----------------------3-----------------------|
   The room that you           lie in          is       dusty and     hard

e|------------------------------------------------|---------------------------|
B|------------------------------------------------|---------------------------|
G|--------6-------6---------------6-------6-------|--------6-------6----------|
D|--------7-------7---------------7-------7-------|--------7-------7----------|
A|9-----------------------8-----------------------|7-----------------------6--|
E|------------------------------------------------|---------------------------|
       Sleeping        soft    babies               on  piles of      yards

e|------------------------------------------------|------------------------------------------------|
B|------------------------------------------------|------------------------------------------------|
G|--------4-------4---------------4-------4-------|--------4-------4---------------4-------4-------|
D|--------4-------4---------------4-------4-------|--------4-------4---------------4-------4-------|
A|------------------------------------------------|------------------------------------------------|
E|6-----------------------5-----------------------|4-----------------------3-----------------------|
   of gingham,                 taffeta,                 cotton and     silk

e|------------------------------------------------|---------------------------|
B|------------------------------------------------|---------------------------|
G|--------6-------6---------------6-------6-------|--------6-------6----------|
D|--------7-------7---------------7-------7-------|--------7-------7----------|
A|9-----------------------8-----------------------|7-----------------------6--|
E|------------------------------------------------|---------------------------|
  Your dry     hung -  ry      mouths cry           for                          your mother's milk

e|---------------------|---------------------------------||
B|---------------------|---------------------------------||
G|-----6-------6-------|--------6-------6----------------:|
D|-----7-------7-------|--------6-------6----------------:|
A|---------------------|4-----------------------4--------||
E|---------------------|---------------------------------||

e|---------------------------------------------------------------------------------------|
B|---------------------------------------------------------------------------------------|
G|-----2---2-------2--------6---6-------6---------1---1-------1--------6---6---6---------|
D|---4---4---4---4--------7---7---7---7---------3---3---3---3----7---7---7---7-----------|(x2)
A|-5-----------5--------9-----------9---------4-----------4--------9-------------9-------|
E|---------------------------------------------------------------------------------------|

e|----------------------------------------------------------------------|
B|----------------------------------------------------------------------|
G|-----4---4-------4--------8---8--------8--------3---3-------3--4------|
D|---6---6---6---6--------9---9---9----9--------5---5---5---5------6----| (x2)
A|-7-----------7-------11-----------11--------6-----------6-------------|
E|----------------------------------------------------------------------|

e|---------------------------10-11-12-13-14-13-12-11-10----------------------------|
B|---------------11-12-13-14-----------------------------14-13-12-11---------------|
G|0--11-12-13-14-----------------------------------------------------14-13-12-11---|
D|0--------------------------------------------------------------------------------|
A|---------------------------------------------------------------------------------|
E|---------------------------------------------------------------------------------|
                                     
e|-9-10-9-8-9-10-9-7-------------------|
B|-------------------10-9-7-9-7-6-7----|
G|----------------------------------6--|
D|-------------------------------------|
A|-------------------------------------|
E|-------------------------------------|

e|---------------------------10-11-12-13-14-13-12-11-10----------------------------|
B|---------------11-12-13-14-----------------------------14-13-12-11---------------|
G|0--11-12-13-14-----------------------------------------------------14-13-12-11---|
D|0--------------------------------------------------------------------------------|
A|---------------------------------------------------------------------------------|
E|---------------------------------------------------------------------------------|

e|----9-10-9-8-9-10-9-7-------------|
B|----------------------10-9-7---7--|
G|-----------------------------6----|
D|----------------------------------|
A|----------------------------------|
E|----------------------------------|

*Part 5*

VERSE 1

N.C.
Darling dear what have you done?
Your clothes are town, your make-up runs.

(F#5 - E5)x8

VERSE 2

N.C
I ran through brambles, blooming thistle
I washed my face in the river when you whistled me on.

(F#5 - E5)x8

VERSE 3

Darling dear, what have you done?
Your hands and face are smeared with blood.

(F#5 - E5)x2

e|----------------|
B|----------------|
G|----------------|
D|----------------|
A|-----4-3b4b3----|
E|-2-5---------5--|

(F#5 - E5)x2

e|----------------|
B|----------------|
G|----------------|
D|-------2-3-4----|
A|-----4----------|
E|-2-5------------|

VERSE 4

N.C
The chaplain came and called me out
To beat and to butcher his mother's sow

e|----------------|
B|----------------|
G|----------------|
D|----------------|
A|-----4-3b4b3----|
E|-2-5---------5--|

(F#5 - E5)x2

e|----------------|
B|----------------|
G|----------------|
D|-------2-3-4----|
A|-----4----------|
E|-2-5------------|

VERSE 5

N.C.
But darling dear, they found him dead
This morning on the river.

(F#5 - E5)x2
e|-------------------------------------|
B|-------------------------------------|
G|-----------------------------1-2-3---|
D|-----------------------2-3-4---------|
A|-----4-3b4b3---------4---------------|
E|-2-5---------5---2-5-----------------|

B A B A

BRIDGE

    B                 A
But hush now darling, don't you cry.
     B               A
Your reward's in the sweet by-and-by.
   B              A
So hush now baby, don't you cry.
     B               A
Your reward's in the sweet by-and-by.

e|----------------|
B|----------------|
G|----------------|
D|----------------|
A|-------5-6-7----|
E|-5-6-7----------|

e|---------------------------     e|-------------------------------|
B|---------------------------     B|-------------------------------|
G|---------------------------     G|-------------------------------|
D|--------------------------- x2  D|-------------------------2-0-2-|
A|-----2-1h2p1-------2-5-6-7-     A|-----2-1h2p1-------0-2---------|
E|-0-3---------3-0-3---------     E|-0-3---------3p0-3-----0-------|

*Part 6*

e|--------------------------------|
B|--------------------------------|
G|--------------------------------|
D|--------------------------------| x2
A|------2-1h2p1----------2-5-6-7--|
E|--0-3----------3-0--3-----------|

e|---------------------------------------------------------|
B|---------------------------------------------------------|
G|---------------------------------------------------------|
D|-----------------------------2-0-2-----------------------|x1 per line
A|-------2-1h2p1---------0-2----------------2-1h2p1--------|
E|--0-3-----------3p0--3-----0----------0-3----------3--0-3|

VERSE 1

And now we've seen your powers
Softly stretch the hours
You're a fickle little twister
Are you sweet on your sister?
As now you go wandering home.

e|------------------------------0--|
B|----------------------------0----|
G|--------------------------0------|
D|------------------------2--------|  Em
A|----------------------2----------|
E|-0-3-7-6b7b6-3-0----0------------|
Добавлено: 21.10.2013
Другие материалы по этой песне:
  • Аккорды и текст

Страница создана 21.10.2013
http://primanota.ru/decemberists/tain-album-chords.htm
Привет, Гость.
Предлагаем пройти революционный курс по гитаре.
Подарок от PrimaNota.Ru, забирай!