PrimaNota.ru - самый крупный в мире бесплатный архив песенных текстов, аккордов, табулатур и нот


Decemberists - From My Own True Love (Lost At Sea) - аккорды и текст, таба, видео

Регистрация Запомнить меня
Войти через:  Facebook Google Twitter Vk Yandex Mail.ru

Decemberists - From My Own True Love (Lost At Sea) - аккорды и текст, таба, видео

Печатать
Просмотров: 185
Уроки эстрадного вокала в Санкт-Петербурге
Авторы музыки: Colin Meloy
Авторы текста: Colin Meloy
From My Own True Love (Lost At Sea)
Decemberists
Tabbed by: TimMobbs
Email: sloths_magic_hat@hotmail.com

Tuning: Standard EADGBE
Capo 3rd fret

For real beginners, i have written out the 
tablature of the chords, with a few of the
from the first line of each verse to keep 
you on track, it also gives you an idea of the
as well. for guitarists who already know 
their chords, go straight to the bottom for the 
list with the lyrics :)
Enjoy!

Intro:

e|-0-0--|
B|-1-1--|
G|-2-2--|
D|-2-2--|
A|-0-0--|
E|------|

Verse Riff A:

e|------0-0---0-0----0-0----0--3-|
B|------1-1---1-1----1-1----1--3-|
G|------2-2---2-2----2-2----2--0-| Repeat Riff A once more
D|------2-2---2-2----2-2----2--0-|
A|----0-0-0---0-0--0-0-0----0--2-|
E|-----------0------------0---3--|

Verse Riff B:

     Four|Score|Ye--ars...|                                 1st Time Bar
e|-------|0-0--|----0-0---|--0-0--0-0--3-3--0-0--0-0---0-0-|---0--3-----|
B|-------|1-1--|----1-1---|--1-1--1-1--2-2--1-1--1-1---1-0-|---1--3-----|
G|-------|2-2--|----2-2---|--2-2--2-2--3-3--2-2--2-1---2-2-|---2--0-----|
D|-------|2-2--|----2-2---|--2-2--2-2--0-0--2-2--2-2---2-2-|---2--0-----|
A|---0---|0-0--|----0-0---|-0-----0-0------0-----0-0-0-0-0-|---0--2-----|
E|-------|-----|0---------|------0--------------0----------|-0---3------|

Play riff B twice, but on the second time around, instead of playing the 1st time bar,
the second time bar, which is just below here, and then go into the chorus.

2nd Time Bar:
e|---0-------|
B|---0-------|
G|---0-------|
D|---2-------|
A|---2-------|
E|-0---2-----|

Chorus Riff A

     Mister| Postma--n |                          1st Time Bar (chorus)
e|---3---3-|-----3---3-|---3-3---3-3---0-0---0-0-|---0---0------------|
B|---3---3-|-----3---3-|---3-3---3-3---1-1---1-1-|---1---0------------|
G|---0---0-|-----0---0-|---0-0---0-0---2-2---2-2-|---2---0------------|
D|---0---0-|-----0---0-|---0-0---0-0---2-2---2-2-|---2---2------------|
A|---2---2-|-----2---2-|---2-2---2-2-0-0-0---0-0-|-0-----2------------|
E|-3-3---3-|-3---3---3-|-3-3-3-3-3-3-------0-----|-----0---2----------|

Play the Chorus Riff A, then the 1st Time bar (Chorus), play the Chorus Riff A once
but instead of playing the second Time Bar (chorus) play the 2nd Time Bar (chorus)and go
chorus riff B.

  2nd Time Bar (chorus
e|---1-1---1-1---1-1----1-1--|
B|---1-1---1-1---1-1----1-1--|
G|---2-2---2-2---2-2----2-2--|
D|---3-3---3-3---3-3----3-3--|
A|---3-3---3-3---3-3----3-3--|
E|-1-----1-----1------1------|

Chorus Riff B

   own| true| love|               |Lost| at|sea|             (lost|at|
e|----|-0-0-|---0-|-0---0-0---0-0-|----|-3-|3--|---3-3---3-3-|----|--|
B|----|-1-1-|---1-|-1---1-1---1-1-|----|-3-|3--|---3-3---3-3-|----|--|
G|----|-2-2-|---2-|-2---2-2---2-2-|----|-0-|0--|---0-0---0-0-|----|--|
D|----|-2-2-|---2-|-2---2-2---2-2-|----|-0-|0--|---0-0---0-0-|----|--|
A|-0--|-0-0-|---0-|-0-0-0-0---0-0-|----|-2-|2--|---2-2---2-2-|----|3-|
E|----|-----|-0---|---------0-----|-3--|-3-|3--|-3-3-3-3-3-3-|-3--|--|

The rest of the song is the following:

Verse Riff A
1st Time Bar
Verse Riff A
2nd Time Bar
Chorus Riff A
1st Time Bar (chorus)
Chorus Riff B
2nd Time Bar (chorus)

Finish off by repeating the Verse Riff A, and the 1st Time Bar as many times as you
and finishing on on Am chord (the chord in the intro)

Chords:

Am         Am/E   Am     Am/E
         Am    Am/E    Am    Am/E     D
Four score years, living down in this rain swept town.

Am       Am/E   Am       Am/E
         Am   Am/E     Am    Am/E     D
Sea salt tears, swimming round as the rain comes down.

G                             Am         Am/E
Mister Postman, do you have a letter for me?

G                             Am         Am/E  F
Mister Postman, do you have a letter for me?   A letter for me?

Am               Am/E  G             G    C
Am
From my own true love, lost at sea. (lost at sea)

The rest of the song is a repeat of what 
is already there, it shouldn't take too much
effort to figure out :)
Добавлено: 12.10.2013
Другие материалы по этой песне:
  • Аккорды и текст

Страница создана 21.02.2012
http://primanota.ru/decemberists/from-my-own-true-love-lost-at-sea-chords.htm
Привет, Гость.
Предлагаем пройти революционный курс по гитаре.
Подарок от PrimaNota.Ru, забирай!