PrimaNota.ru - самый крупный в мире бесплатный архив песенных текстов, аккордов, табулатур и нот


Decemberists - An Interlude - таба, видео

Регистрация Запомнить меня
Войти через:  Facebook Google Twitter Vk Yandex Mail.ru

Decemberists - An Interlude - таба, видео

Печатать
Просмотров: 72
Авторы музыки: Colin Meloy

-------------------------------------------------------------------------------
			AN INTERLUDE - The Decemberists
-------------------------------------------------------------------------------
Tabbed by: Barney Gale
Email: barney.gale@gmail.com

Tuning: Drop D

Timing is 8/8 double time (1 2 3 1 2 3 1 2) during the verse, 
then 3 bars of 4 for the faster "riff"


    1   2   3   1   2   3   1   2
E:|---------------------------------|
B:|---------------------------------|
G:|---------------------------------| Riff 1
D:|-----4---2-------5---4-------2-4-| x4
A:|---0-----------0-----------0-----|
D:|-0-----------0-----------0-------|

       1   2   3   4   1   2     3   4   1   2     3     4
E:|------------------|---------------------------------------|
B:|------------------|---------------------------------------|
G:|--------4-----4---|---------------------------------------| Riff 2
D:|------4-----4-----0-----0-----0-5-0-------0-----0-4h5-----|
A:|----2-----2-----0-|---5---4h5-------5---5---4h5-------5-0-|
D:|------------------|-5-----------------5-------------------|

Then play:
  Riff 1 x4
  Riff 2
  Riff 1 x4
  
Then this variation on riff 2:

       1   2   3   4   1   2     3   4   1   2     3     4   1   2     3   4   1   2     3     4
E:|--------------|-------------------------------------|-----------------------------------------|
B:|--------------|-------------------------------------|-----------------------------------------|
G:|----4-----4---|-------------2-----------------------|-------------2-------------------------0-|
D:|--4-----4-----0-----0-----0---0-------0-----0-4h5-0-|-----0-----0---0-------0-----0-4h5-0---0-|
A:|2-----2-----0-|---5---4h5-------5---5---4h5---------5---5---4h5-------5---5---4h5---------5-5-|
D:|--------------|-5-----------------5-----------------|-5-----------------5-------------------5-|
Добавлено: 05.12.2013
Другие материалы по этой песне:
  • Аккорды и текст

Страница создана 05.12.2013
http://primanota.ru/decemberists/an-interlude-chords.htm
Привет, Гость.
Предлагаем пройти революционный курс по гитаре.
Подарок от PrimaNota.Ru, забирай!