PrimaNota.ru - самый крупный в мире бесплатный архив песенных текстов, аккордов, табулатур и нот


Death - Scream Bloody Gore (album) - бас-таба, видео

Регистрация Запомнить меня
Войти через:  Facebook Google Twitter Vk Yandex Mail.ru

Death - Scream Bloody Gore (album) - бас-таба, видео

Печатать
Просмотров: 77
Tabbed by: 6METAL6BASSIST6
E-mail: petergriffinav@gmail.com

Tuning: DGCF

1. Infernal Death

F|----------------------------------------------------------------|
C|----------------------------------------------------------------|
G|--------------------------------3---------------2---------------|
D|3---------------2-----------------------------------------------|

F|----------------------------------------------------------------|
C|----------------------------------------------------------------|
G|--------------------------------3---------------2-------/---\---|
D|3---------------2-----------------------------------------------|

F|----------------------------------------------------------------|
C|----------------------------------------------------------------| x3
G|--------------------------------3---3-3-3---3-3-2---2-2-2-2-2---|
D|3---3-3-3---3-3-2---2-2-2---2-2---------------------------------|

F|----------------------------------------------------------------|
C|----------------------------------------------------------------|
G|--------------------------------3---3-3-3---3-3-2---------------|
D|3---3-3-3---3-3-2---2-2-2---2-2---------------------------------|

0:42

F|----------------------------------------------------------------|
C|----------------5---4---5-4---------------------5---4---5-4-----| x4
G|----4---5---4---------------5-------4---5---4---------------5---|
D|2-------------------------------2-------------------------------|

F|----------------------------------------------------------------|
C|----------------------------------------------------------------| x2
G|--------3-------4-----------------------3-------4---------------|
D|2-----------------------3-------2-----------------------3-------|

F|----------------------------------------------------------------|
C|----------------5---4---5-4---------------------5---4---5-4-----| x4
G|----4---5---4---------------5-------4---5---4---------------5---|
D|2-------------------------------2-------------------------------|

F|----------------------------------------------------------------|
C|----------------------------------------------------------------| x2
G|--------3-------4-----------------------3-------4---------------|
D|2-----------------------3-------2-----------------------3-------|

1:37

F|----------------------------------------------------------------|
C|----------------------------------------------------------------| x2
G|------------------------3-4-3---------------------------3-4-3---|
D|2-2-2-2-2-2-2-2-2-2-2-----------2-2-2-2-2-2-2-2-2-2-2-----------|

F|----------------------------------------------------------------|
C|----------------5---4---5-4---------------------5---4---5-4-----| x2
G|----4---5---4---------------5-------4---5---4---------------5---|
D|2-------------------------------2-------------------------------|

F|----------------------------------------------------------------|
C|----------------------------------------------------------------| x2
G|--------3-------4-----------------------3-------4---------------|
D|2-----------------------3-------2-----------------------3-------|

F|----------------------------------------------------------------|
C|----------------5---4---5-4---------------------5---4---5-4-----| x2
G|----4---5---4---------------5-------4---5---4---------------5---|
D|2-------------------------------2-------------------------------|

2:13

F|----------------------------------------------------------------|
C|----------------------------------------------------------------| x4
G|--------5-------3-------3---3-----------5-------3-------3-2-3---|
D|4-4-4-----4-4-----4-4-----------4-4-4-----4-4-----4-4-----------|

F|----------------------------------------------------------------|
C|----------------------------------------------------------------| x2
G|--------3-------4-----------------------3-------4---------------|
D|2-----------------------3-------2-----------------------3-------|

F|----------------------------------------------------------------|
C|----------------------------------------------------------------|
G|------------------------3-4-3---------------------------3-4-3---|
D|2-2-2-2-2-2-2-2-2-2-2-----------2-2-2-2-2-2-2-2-2-2-2-----------|

F|-----------------------------------------------------------------|
C|-----------------------------------------------------------------|
G|------------------------3-4-3---------------------------3-4-3----|
D|2-2-2-2-2-2-2-2-2-2-2-----------2-2-2-2-2-2-2-2-2-2-2-----------2|

2. Zombie Ritual

0:05

F|----------------------------------------------------------------|
C|----------------------------------------------------------------|
G|----------------------------------------------------------------|
D|5-------------------------------1---------------0---------------|

F|----------------------------------------------------------------|
C|----------------------------------------------------------------|
G|----------------------------------------------------------------|
D|----------------------------------------------------------------|

F|----------------------------------------------------------------|
C|----------------------------------------------------------------|
G|----------------------------------------------------------------|
D|5-------------------------------1---------------0---------------|

F|--------------------6h7-6---------------------------------------|.
C|7---------------7h8-------8-7-----------------------------------|.
G|--------------------------------8---------------7---------------|.
D|----------------------------------------------------------------|.
                                                                   . x2
F|----------------------------------------------------------------|.
C|----------------------------------------------------------------|.
G|----------------------------------------------------------------|.
D|5-------------------------------1---------------0---------------|.

0:39

F|----------------------------------------------------------------|
C|----------------------------------------------------------------| x6
G|------------------------5-7-8---------------------------2-2-2---|
D|0-0-0-0-0-0-0-0-0-0-0-----------4-4-4-4-4-4-4---3-3-3-----------|

F|----------------------------------------------------------------|
C|----------------------------------------------------------------|
G|----------------------------------------------------------------|
D|0-------2-------1-1-1-1-1-1-1---0-------4-------3-3-3-3-3-3-3---|

F|------------------------------------------------------------|
C|------------------------------------------------------------|
G|------------------------------------------------------------|
D|0-------2-------1-1-1-1-1-1-1---0-------4-------3-3-3-3-3---|

1:15

F|----------------------------------------------------------------|
C|----------------------------------------------------------------| x4
G|----------------------------------------------------------------|
D|1-2-3-4-0-----------------------4-3-2-1-2---1-------------------|

F|--------|
C|--------|
G|--------|
D|1-2-3-4-|

F|----------------------------------------------------------------|
C|----------------------------------------------------------------| x6
G|----------------2---------------3-------------------------------|
D|0-----------------------------------------------3-3-3-3-3-3-3---|

F|----------------------------------------------------------------|
C|----------------------------------------------------------------| x2
G|----------------2-2-2-2-2-2-2---3-3-3-3-3-3-3-------------------|
D|0-0-0-0-0-0-0-----------------------------------3-3-3-3-3-3-3---|

F|----------------------------------------------------------------|.
C|----------------------------------------------------------------|.
G|----------------------------------------------------------------|.
D|2---2-2-2-2-2---2-2-2---2-2-2---3-3-3---3-3-3---4-4-4---3-3-3---|.
                                                                   . x2
F|----------------------------------------------------------------|.
C|----------------------------------------------------------------|.
G|--------------------------------------------------------3-------|.
D|2---2-2-2-2-2---2-2-2---2-2-2---3-3-3---3-3-3---4-4-4-----------|.

2:17

F|----------------------------------------------------------------|
C|----------------------------------------------------------------| x6
G|------------------------5-7-8---------------------------2-2-2---|
D|0-0-0-0-0-0-0-0-0-0-0-----------4-4-4-4-4-4-4---3-3-3-----------|

F|----------------------------------------------------------------|
C|----------------------------------------------------------------|
G|----------------------------------------------------------------|
D|0-------2-------1-1-1-1-1-1-1---0-------4-------3-3-3-3-3-3-3---|

F|------------------------------------------------------------|
C|------------------------------------------------------------|
G|------------------------------------------------------------|
D|0-------2-------1-1-1-1-1-1-1---0-------4-------3-3-3-3-3---|

2:43

F|----------------------------------------------------------------|
C|----------------------------------------------------------------| x2
G|----------------------------------------------------------------|
D|1-2-3-4-0-----------------------4-3-2-1-2---1-------------------|

F|--------|
C|--------|
G|--------|
D|1-2-3-4-|

F|----------------------------------------------------------------|
C|----------------------------------------------------------------| x6
G|----------------2---------------3-------------------------------|
D|0-----------------------------------------------3-3-3-3-3-3-3---|

F|----------------------------------------------------------------|
C|----------------------------------------------------------------| x2
G|----------------2-2-2-2-2-2-2---3-3-3-3-3-3-3-------------------|
D|0-0-0-0-0-0-0-----------------------------------3-3-3-3-3-3-3---|

F|----------------------------------------------------------------|.
C|----------------------------------------------------------------|.
G|----------------------------------------------------------------|.
D|2---2-2-2-2-2---2-2-2---2-2-2---3-3-3---3-3-3---4-4-4---3-3-3---|.
                                                                   . x2
F|----------------------------------------------------------------|.
C|----------------------------------------------------------------|.
G|--------------------------------------------------------3-------|.
D|2---2-2-2-2-2---2-2-2---2-2-2---3-3-3---3-3-3---4-4-4-----------|.

3:47

F|----------------------------------------------------------------|
C|------------4-----------5---------------------------------------| x5
G|2-2-2-2-2-------2---2-------5---4-4-4-4-4-4-4-------------------|
D|------------------------------------------------3-3-3---2-2-2---|

F|----------------------------------------------------------------|
C|------------4-----------5---------------------------------------|
G|2-2-2-2-2-------2---2-------5---4-4-4-4-4-4-4-------------------|
D|------------------------------------------------3-3-3---2-------|

F|----------------------------------------------------------------|.
C|----------------------------------------------------------------|.
G|----------------------------------------------------------------|.
D|2---2-2-2-2-2---2-2-2---2-2-2---3-3-3---3-3-3---4-4-4---3-3-3---|.
                                                                   . x2
F|----------------------------------------------------------------|.
C|----------------------------------------------------------------|.
G|--------------------------------------------------------3-------|.
D|2---2-2-2-2-2---2-2-2---2-2-2---3-3-3---3-3-3---4-4-4-----------|.

3. Denial Of Life

F|----------------------------------------------------------------|
C|----------------------------------------------------------------| x2
G|----------------------------------------------------------------|
D|5---5---5---5---5---5---5---5---5---5---5---5---5---5---5---5---|

0:11

F|----------------------------------------------------------------|
C|----------------------------------------------------------------| x4
G|--------------------------------------------------------2-1-----|
D|5-5-5---4-4-4---5-5-5---4-4-4---5-5-5---4-4-4---1-1-1-------3---|

F|----------------------------------------------------------------|
C|----------------------------------------------------------------| x2
G|--------------------------------2-2-2-2-2-2-2-------------------|
D|1-1-1---2-2-2---1-1-1---4-4-4-------------------2-2-2-2-2-2-2---|

F|----------------------------------------------------------------|
C|----------------------------------------------------------------| x3
G|----------------2---1---------------------------2---1-----------|
D|1-----------------------2---3---0-----------------------2---3---|

F|--------------------------------|
C|--------------------------------|
G|----------------2---1-----------|
D|1-----------------------2---3---|

0:48

F|----------------------------------------------------------------|
C|----------------------------------------------------------------| x4
G|----------------1-1-2-2-----------------------------------------|
D|0-----0-0-----0---------2-2-2-2-3-----3-3-----3-2-----2-1-1-1-1-|

F|----------------------------------------------------------------|
C|----------------------------------------------------------------|
G|--------------------------------------------------------2-1-----|
D|0-----------------------------------------------------------3---|

1:21

F|----------------------------------------------------------------|
C|----------------------------------------------------------------| x3
G|--------------------------------------------------------2-1-----|
D|5-5-5---4-4-4---5-5-5---4-4-4---5-5-5---4-4-4---1-1-1-------3---|

F|----------------------------------------------------------------|
C|----------------------------------------------------------------| x2
G|--------------------------------2-2-2-2-2-2-2-------------------|
D|1-1-1---2-2-2---1-1-1---4-4-4-------------------2-2-2-2-2-2-2---|

F|----------------------------------------------------------------|
C|----------------------------------------------------------------| x3
G|----------------2---1---------------------------2---1-----------|
D|1-----------------------2---3---0-----------------------2---3---|

F|--------------------------------|
C|--------------------------------|
G|----------------2---1-----------|
D|1-----------------------2---3---|

F|----------------------------------------------------------------|
C|----------------------------------------------------------------| x4
G|----------------1-1-2-2-----------------------------------------|
D|0-----0-0-----0---------2-2-2-2-3-----3-3-----3-2-----2-1-1-1-1-|

F|----------------------------------------------------------------|
C|----------------------------------------------------------------|
G|----------------------------------------------------------------|
D|0---------------------------------------------------------------|

2:22

F|----------------------------------------------------------------|
C|----------------------------------------------------------------|
G|----2-------------------------------2---------------------------|
D|0-1-----------------------------0-1-----------------------------|

F|----------------------------------------------------------------|
C|----------------------------------------------------------------|
G|----2---------------4---4---3-------2---------------4---4---3---|
D|0-1-----0---3---3---------------0-1-----0---3---3---------------|

F|----------------------------------------------------------------|
C|----------------------------------------------------------------| x2
G|----2---------------4-4-4---3-------2---------------4-4-4---3---|
D|0-1---0-0---3-3-3---------------0-1---0-0---3-3-3---------------|

2:42

F|----------------------------------------------------------------|
C|7-------------------------------7---------------------------5---|
G|--6-7-------8-------7-------8-----6-7-------8-------7-----------|
D|------0-0-----0-0-----0-0-------------0-0-----0-0-----0-0-------|

F|--------------------------------------------------------------------|
C|7-------------------------------7---------------------------5-------|
G|--6-7-------8-------7-------8-----6-7-------8-------7---------------|
D|------0-0-----0-0-----0-0-------------0-0-----0-0-----0-0-----------|

F|----------------------------------------------------------------|
C|------------------------7-------8-------7-------5---------------| x4
G|5-------7-------8---------------------------------------8---8---|
D|--0-0-----0-0-----0-0-----0-0-----0-0-----0-0-----0-0-----------|

3:11

F|----------------------------------------------------------------|
C|----------------------------------------------------------------| x4
G|------------------------2---1-----------------------------------|
D|0---2---3---2---0---2-----------0---2---3---2---3-------2-------|

F|----------------------------------------------------------------|
C|----------------------------------------------------------------|
G|----------------------------------------------------------------|
D|0---------------------------------------------------------------|

4. Sacrificial

F|----------------------------------------------------------------|.
C|----------------------------------------------------------------|.
G|----------------------------------------------------------------|.
D|5-------------------------------4-------------------------------|.
                                                                   . x2
F|----------------------------------------------------------------|.
C|----------------------------------------------------------------|.
G|----------------------------------------------------------------|.
D|7-------------------------------6-------------------------------|.

0:17

F|----------------------------------------------------------------|.
C|----------------------------------------------------------------|.
G|----------------7---8---7-----------------------6-------7-------|.
D|5---5---5---5-------------------4---4---4---4-------------------|.
                                                                   . x2
F|----------------------------------------------------------------|.
C|----------------------------------------------------------------|.
G|----------------9---10--9-----------------------8-------9-------|.
D|7---7---7---7-------------------6---6---6---6-------------------|.

F|----------------------------------------------------------------|
C|----------------------------------------------------------------| x2
G|----------------------------------------------------------------|
D|0-------------------------------------------------------3---1---|

0:41

F|----------------------------------------------------------------|
C|----------------------------------------------------------------| x4
G|----------------6---6---5---5-----------------------------------|
D|0---0---3---3-------------------0---0---3---3---4---4---3---1---|

F|----------------------------------------------------------------|
C|----------------------------------------------------------------| x4
G|------------------------------------------------------------1---|
D|0-0-0---1-1-1---2-2-2---1-1-1---0-0-0---1-1-1---2-2-2---0-0-----|

1:13

F|----------------------------------------------------------------|.
C|----------------------------------------------------------------|.
G|----------------7---8---7-----------------------6-------7-------|.
D|5---5---5---5-------------------4---4---4---4-------------------|.
                                                                   . x4
F|----------------------------------------------------------------|.
C|----------------------------------------------------------------|.
G|----------------9---10--9-----------------------8-------9-------|.
D|7---7---7---7-------------------6---6---6---6-------------------|.

F|----------------------------------------------------------------|
C|----------------------------------------------------------------| x2
G|----------------------------------------------------------------|
D|0-------------------------------------------------------3---1---|

1:55

F|----------------------------------------------------------------|
C|----------------------------------------------------------------| x4
G|----------------6---6---5---5-----------------------------------|
D|0---0---3---3-------------------0---0---3---3---4---4---3---1---|

F|----------------------------------------------------------------|
C|----------------------------------------------------------------| x4
G|------------------------------------------------------------1---|
D|0-0-0---1-1-1---2-2-2---1-1-1---0-0-0---1-1-1---2-2-2---0-0-----|

2:26

F|----------------------------------------------------------------|
C|----------------------------------------------------------------| x6
G|7---------------8-------------------------------2-2-2-----------|
D|--5-5-5-5-5-5-----5-5-5-5-5-5---4-4-4-4-4-4-4-----------1-1-1---|

2:53

F|----------------------------------------------------------------|.
C|----------------------------------------------------------------|.
G|----------------3---------------2-------------------------------|.
D|0-----------------------------------------------3---3---3---3---|.
                                                                   . x4
F|----------------------------------------------------------------|.
C|----------------------------------------------------------------|.
G|----------------3---------------2-------------------2-----------|.
D|0-----------------------------------------------3-------1-------|.

F|----------------------------------------------------------------|
C|----------------------------------------------------------------| x4
G|------------------------------------------------------------1---|
D|0-0-0---1-1-1---2-2-2---1-1-1---0-0-0---1-1-1---2-2-2---0-0-----|

5. Mutilation

0:04

F|----------------|
C|----------------|
G|--------1-2-1---|
D|3-4-3-----------|

F|----------------------------------------------------------------|
C|----------------------------------------------------------------| x5
G|--------------------------------------------------------1-2-1---|
D|0-0-0---1-2-1---0-0-0---3-4-3---0-0-0---1-2-1---3-4-3-----------|

F|----------------------------------------------------------------|
C|----------------------------1-------------------------------1---| x2
G|4-4-4---3-3-3---2-2-2---1-------4-4-4---3-3-3---2-2-2---1-------|
D|----------------------------------------------------------------|

F|----------------------------------------------------------------|
C|----------------------------------------------------------------| x4
G|4-4-4-4-4-5-4---7-7-7-7-7-8-7---4-4-4-4-4-5-4---3---2---1---0---|
D|----------------------------------------------------------------|

F|--------------------------------|
C|--------------------------------|
G|3---2---1---0---3---2---1---0---|
D|--------------------------------|

0:55

F|----------------------------------------------------------------|
C|----------------------------------------------------------------| x6
G|--------------------------------------------------------1-2-1---|
D|0-0-0---1-2-1---0-0-0---3-4-3---0-0-0---1-2-1---3-4-3-----------|

F|----------------------------------------------------------------|
C|----------------------------1-------------------------------1---| x2
G|4-4-4---3-3-3---2-2-2---1-------4-4-4---3-3-3---2-2-2---1-------|
D|----------------------------------------------------------------|

F|----------------------------------------------------------------|
C|----------------------------------------------------------------| x4
G|4-4-4-4-4-5-4---7-7-7-7-7-8-7---4-4-4-4-4-5-4---3---2---1---0---|
D|----------------------------------------------------------------|

F|----------------------------------------------------------------|
C|----------------------------------------------------------------|
G|3---2---1---0---3---2---1---0-----------------------------------|
D|----------------------------------------------------------------|

1:57

F|------------------------------------------------|     F|------------|
C|------------------------------------------------| x4  C|------------|
G|------------------------------------------------|     G|------------|
D|2-2-2-2-1---0-0-0-0-0---4-6-6-6-6---3-5-5-5-5---|     D|2-2-2-2-1---|

F|------------------------------------------------------------------------------------------------|
C|------------------------------------------------------------------------------------------------| x4
G|2-----------3-----------2-----------3-----------2-----------3-----------------------1---1---1---|
D|----0-0-0-------0-0-0-------0-0-0-------0-0-0-------0-0-0-------0-0-0---1---1---1---------------|

2:29

F|----------------------------------------------------------------|
C|----------------------------------------------------------------| x4
G|2-2-2-2-2-2-2---1-1-1-1-1-1-1-----------------------------------|
D|--------------------------------2-2-2-2-2-2-2---1-1-1-1-1-1-1---|

2:46

F|----------------------------------------------------------------|
C|----------------------------------------------------------------| x2
G|--------------------------------------------------------1-2-1---|
D|0-0-0---1-2-1---0-0-0---3-4-3---0-0-0---1-2-1---3-4-3-----------|

F|----------------------------------------------------------------|
C|----------------------------1-------------------------------1---| x2
G|4-4-4---3-3-3---2-2-2---1-------4-4-4---3-3-3---2-2-2---1-------|
D|----------------------------------------------------------------|

F|----------------------------------------------------------------|
C|----------------------------------------------------------------| x4
G|4-4-4-4-4-5-4---7-7-7-7-7-8-7---4-4-4-4-4-5-4---3---2---1---0---|
D|----------------------------------------------------------------|

F|--------------------------------|
C|--------------------------------|
G|3---2---1---0---3---2---1---0---|
D|--------------------------------|

6. Regurgitated Guts

F|----------------------------------------------------------------|
C|----------------------------------------------------------------| x4
G|----------------------------------------------------------------|
D|5-------4-------------------------------------------------------|

F|----------------|
C|----------------|
G|----------------|
D|4-------3-------|

0:10

F|----------------------------------------------------------------|.
C|----------------------------------------------------------------|.
G|------------------------------------------------2-------1-------|.
D|0---0---0-------0---0---0-------0---0---0-----------------------|.
                                                                   . x4
F|----------------------------------------------------------------|.
C|----------------------------------------------------------------|.
G|----------------------------------------------------------------|.
D|1---1---1-------1---1---1-------1---1---1-------4-------3-------|.

0:30 speeds up a little.

F|----------------------------------------------------------------|
C|----------------------------------------------------------------| x2
G|------------------------2---1-----------------------------------|
D|0-0-0-0-0-0-0-0-0-0-0-----------1-1-1-1-1-1-1-1-1-1-1---4---3---|

F|----------------------------------------------------------------|.
C|----------------------------------------------------------------|.
G|------------------------------------------------2-------1-------|.
D|0---0---0-------0---0---0-------0---0---0-----------------------|.
                                                                   . x2
F|----------------------------------------------------------------|.
C|----------------------------------------------------------------|.
G|----------------------------------------------------------------|.
D|1---1---1-------1---1---1-------1---1---1-------4-------3-------|.

F|----------------------------------------------------------------|
C|----------------------------------------------------------------| x2
G|------------------------2---1-----------------------------------|
D|0-0-0-0-0-0-0-0-0-0-0-----------1-1-1-1-1-1-1-1-1-1-1---4---3---|

F|----------------------------------------------------------------|
C|----------------------------------------------------------------|
G|------------------------------------------------2-------1-------|
D|0---0---0-------0---0---0-------0---0---0-----------------------|

F|----------------------------------------------------------------|
C|----------------------------------------------------------------|
G|----------------------------------------------------------------|
D|1---1---1-------1---1---1-------1---1---1-------4-------3-------|

F|----------------------------------------------------------------|
C|----------------------------------------------------------------|
G|------------------------------------------------2-------1-------|
D|0---0---0-------0---0---0-------0---0---0-----------------------|

F|------------------------------------------------|
C|------------------------------------------------|
G|------------------------------------------------|
D|1---1---1-------1---1---1-------1---1---1-------|

F|----------------------------------------------------------------|
C|----------------------------------------------------------------| x4
G|----------------------------------------------------------------|
D|5-------4-------------------------------------------------------|

1:16

F|----------------------------------------------------------------|
C|----------------------------------------------------------------| x3
G|--------------------------------3-------------------------------|
D|4-------2-------1---1---1---------------4-------2---2---2-------|

F|----------------------------------------------------------------|
C|----------------------------------------------------------------|
G|--------------------------------3-----------------------2-------|
D|4-------2-------1---1---1---------------4-------2---------------|

1:26

F|----------------------------------------------------------------|.
C|----------------------------------------------------------------|.
G|------------------------------------------------2-------1-------|.
D|0---0---0-------0---0---0-------0---0---0-----------------------|.
                                                                   . x4
F|----------------------------------------------------------------|.
C|----------------------------------------------------------------|.
G|----------------------------------------------------------------|.
D|1---1---1-------1---1---1-------1---1---1-------4-------3-------|.

F|----------------------------------------------------------------|
C|----------------------------------------------------------------| x2
G|------------------------2---1-----------------------------------|
D|0-0-0-0-0-0-0-0-0-0-0-----------1-1-1-1-1-1-1-1-1-1-1---4---3---|

F|----------------------------------------------------------------|.
C|----------------------------------------------------------------|.
G|------------------------------------------------2-------1-------|.
D|0---0---0-------0---0---0-------0---0---0-----------------------|.
                                                                   . x2
F|----------------------------------------------------------------|.
C|----------------------------------------------------------------|.
G|----------------------------------------------------------------|.
D|1---1---1-------1---1---1-------1---1---1-------4-------3-------|.

F|----------------------------------------------------------------|
C|----------------------------------------------------------------| x2
G|------------------------2---1-----------------------------------|
D|0-0-0-0-0-0-0-0-0-0-0-----------1-1-1-1-1-1-1-1-1-1-1---4---3---|

F|----------------------------------------------------------------|
C|----------------------------------------------------------------|
G|------------------------------------------------2-------1-------|
D|0---0---0-------0---0---0-------0---0---0-----------------------|

F|----------------------------------------------------------------|
C|----------------------------------------------------------------|
G|----------------------------------------------------------------|
D|1---1---1-------1---1---1-------1---1---1-------4-------3-------|

F|----------------------------------------------------------------|
C|----------------------------------------------------------------|
G|------------------------------------------------2-------1-------|
D|0---0---0-------0---0---0-------0---0---0-----------------------|

F|------------------------------------------------|
C|------------------------------------------------|
G|------------------------------------------------|
D|1---1---1-------1---1---1-------1---1---1-------|

F|----------------------------------------------------------------|
C|----------------------------------------------------------------| x4
G|----------------------------------------------------------------|
D|5-------4-------------------------------------------------------|

2:31

F|----------------------------------------------------------------|
C|----------------------------------------------------------------| x3
G|--------------------------------3-------------------------------|
D|4-------2-------1---1---1---------------4-------2---2---2-------|

F|----------------------------------------------------------------|
C|----------------------------------------------------------------|
G|--------------------------------3-------------------------------|
D|4-------2-------1---1---1---------------4-------2---------------|

2:40

F|----------------------------------------------------------------|.
C|----------------------------------------------------------------|.
G|2---------------------------------------------------------------|.
D|--------------------------------0-------------------------------|.
                                                                   . x5
F|----------------------------------------------------------------|.
C|----------------------------------------------------------------|.
G|3---------------------------------------------------------------|.
D|--------------------------------3-------------------------------|.

F|----------------------------------------------------------------|
C|----------------------------------------------------------------|
G|2---------------------------------------------------------------|
D|--------------------------------0-------------------------------|

F|----------------------------------------------------------------|
C|----------------------------------------------------------------|
G|3---------------------------------------------------------------|
D|--------------------------------3---------------3-------3-------|

3:06

F|----------------------------------------------------------------|.
C|----------------------------------------------------------------|.
G|------------------------------------------------4---5---4-------|.
D|2---2---2---2---2---2---2-------3---3---3-----------------------|.
                                                                   . x3
F|----------------------------------------------------------------|.
C|----------------------------------------------------------------|.
G|--------------------------------------------------------4-------|.
D|5---5---5---5---5---5---5-------4---4---4-------4---------------|.

F|----------------------------------------------------------------|
C|----------------------------------------------------------------|
G|------------------------------------------------4---5---4-------|
D|2---2---2---2---2---2---2-------3---3---3-----------------------|

F|----------------------------------------------------------------|
C|----------------------------------------------------------------|
G|------------------------------------------------4-------7-------|
D|5---5---5---5---5---5---5-------4---4---4-----------------------|

3:24

F|----------------------------------------------------------------|
C|7-------------------------------6-------------------------------| x2
G|--------4---4---4---4---4---------------4-------7---------------|
D|----------------------------------------------------------------|

F|----------------------------------------------------------------|
C|----------------------------------------------------------------| x2
G|7-------------------------------6-------------------------------|
D|--------4---4---4---4---4---------------4-------7---------------|

F|----------------------------------------------------------------|
C|7-------------------------------6-------------------------------| x2
G|--------4---4---4---4---4---------------4-------7---------------|
D|----------------------------------------------------------------|

F|----------------------------------------------------------------|
C|----------------------------------------------------------------| 
G|7-------------------------------6-------------------------------|
D|--------4---4---4---4---4---------------4-------7---------------|

F|----------------------------------------|
C|----------------------------------------|
G|7-------------------------------6-------|
D|--------4---4---4---4---4---------------|

7. Baptized In Blood

F|----------------------------------------------------------------|
C|----------------------------------------------------------------| x4
G|--------------------------------------------------------2---3---|
D|0-----------------------1---1---0---------------0---1-----------|

0:19

F|----------------------------------------------------------------|
C|----------------------------------------------------------------| x4
G|----------------------------6h7-----------------------------6h7-|
D|4-4-4-4-4---5---4-4-4-4-4-------4-4-4-4-4---5---4-4-4-4-4-------|

F|----------------------------------------------------------------|
C|------------------------4---------------------------------------| x2
G|4-----------4---5-----------------------------------------------|
D|----------------------------5---3-3-3-3-3-3-3---2-2-2-2-2-2-2---|

F|----------------------------------------------------------------|
C|----------------------------------------------------------------| x6
G|--------3---5-----------3---5-----------3---5-----------5---4---|
D|2-2-2-----------2-2-2-----------2-2-2-----------2-2-2-----------|

F|------------------------------------------------|.
C|------------------------------------------------|.
G|------------------------------------------------|.
D|0-----------------------1---1---0---------------|.
                                                   . x4
F|------------------------------------------------|.
C|------------------------------------------------|.
G|--------2---3---1-1-1-1-1-1-1-------------------|.
D|0---1---------------------------1-1-1-1-1-1-1---|.

Repeat from 0:19





2:45

F|----------------------------------------------------------------|
C|----------------------------------------------------------------| x2
G|----------------------------6h7-----------------------------6h7-|
D|4-4-4-4-4---5---4-4-4-4-4-------4-4-4-4-4---5---4-4-4-4-4-------|

F|----------------------------------------------------------------|
C|----------------------------------------------------------------|
G|6---------------------------------------------------------------|
D|----------------------------------------------------------------|

F|----------------------------------------------------------------|
C|------------------------------------------------4---4---5-------| x4
G|6---6---7---6---6---6---7---6-------------------------------5---|
D|--------------------------------7---7---6---6-------------------|

3:09

F|----------------------------------------------------------------|
C|----------------------------------------------------------------| x2
G|----------------------------5h6-----------------------------5h6-|
D|3-3-3-3-3---4---3-3-3-3-3-------3-3-3-3-3---4---3-3-3-3-3-------|

F|----------------------------------------------------------------|
C|----------------------------------------------------------------| x2
G|----------------------------4h5-----------------------------4h5-|
D|2-2-2-2-2---3---2-2-2-2-2-------2-2-2-2-2---3---2-2-2-2-2-------|

3:26

F|------------------------------------------------|.
C|------------------------------------------------|.
G|------------------------------------------------|.
D|0-----------------------1---1---0---------------|.
                                                   . x4
F|------------------------------------------------|.
C|------------------------------------------------|.
G|--------2---3---1-1-1-1-1-1-1-------------------|.
D|0---1---------------------------1-1-1-1-1-1-1---|.

F|----------------------------------------------------------------|
C|----------------------------------------------------------------| x2
G|----------------------------6h7-----------------------------6h7-|
D|4-4-4-4-4---5---4-4-4-4-4-------4-4-4-4-4---5---4-4-4-4-4-------|

4:02

F|------------------------------------------------|
C|------------------------------------------------|
G|6---------------6-------4-------6---------------|
D|------------------------------------------------|

F|------------------------------------------------|
C|------------------------------------------------|
G|6-------4-------6---------------6-------4-------|
D|------------------------------------------------|

F|----------------------------------------------------------------|
C|----------------------------------------------------------------| x3
G|--------------------------------------------------------2---3---|
D|0-----------------------1---1---0---------------0---1-----------|

F|-----------------------------------------------------------------|
C|-----------------------------------------------------------------|
G|--------------------------------------------------------2---3----|
D|0-----------------------1---1---0---------------0---1-----------0|

8. Torn To Pieces

0:02

F|------------------------------------------------------------------------------------|
C|------------------------------------------------------------------------------------|
G|--------------------------------------------------------------------5-4-------------|
D|3---5---3---0-------2---------------------------------------------------5---3-------|

F|----------------------------------------------------------------|.
C|----------------------------------------------------------------|.
G|----------------------------------------------------------------|.
D|2---2-2-2-2-3---5-2-2-2-2---5---2-2-2-2-2---3---5---3---0-------|.
                                                                   . x2
F|----------------------------------------------------------------|.
C|----------------------------------------------------------------|.
G|------------------------------------------------5-4-------------|.
D|2---2-2-2-2-2---2-2-2---2-2-2---2-2-2---2-2-2-------5---3-------|.

F|----------------------------------------------------------------|
C|----------------------------------------------------------------|
G|----------------------------------------------------------------|
D|2---2-2-2-2-3---5-2-2-2-2---5---2-2-2-2-2---3---5---3---0-------|

F|----------------------------------------------------------------|
C|----------------------------------------------------------------|
G|----------------------------------------------------------------|
D|2---2-2-2-2-2---2-2-2---2-2-2---2-2-2---2-2-2---2-2-2-2-2-------|

0:30

F|----------------------------------------------------------------|.
C|----------------------------------------------------------------|.
G|----------------------------------------------------------------|.
D|5---5-5-5-5-5---0-0-0---0-0-2---4-4-4---4-4-4---4-4-4---4-4-4---|.
                                                                   . x3
F|----------------------------------------------------------------|.
C|----------------------------------------------------------------|.
G|----------------4-----------------------------------------------|.
D|5---5-5-5-5-5---------------5---4-4-4---4-4-4---4-4-4---4-4-4---|.

F|----------------------------------------------------------------|
C|----------------------------------------------------------------|
G|----------------------------------------------------------------|
D|5---5-5-5-5-5---0-0-0---0-0-2---4-4-4---4-4-4---4-4-4---4-4-4---|

F|----------------------------------------------------------------|
C|----------------------------------------------------------------|
G|----------------4-----------------------------------------------|
D|5---5-5-5-5-5---------------5---4-------------------------------|

1:01

F|----------------------------------------------------------------|
C|----------------------------------------------------------------| x4
G|------------------------------------------------7---------------|
D|4-4-4-4-4-4-4-4-4-4-4-4-4-4-4---5-5-5-5-5-5-5-----------8-------|

1:19

F|----------------------------------------------------------------|.
C|----------------------------------------------------------------|.
G|----------------------------------------------------------------|.
D|2---2-2-2-2-3---5-2-2-2-2---5---2-2-2-2-2---3---5---3---0-------|.
                                                                   . x3
F|----------------------------------------------------------------|.
C|----------------------------------------------------------------|.
G|------------------------------------------------5-4-------------|.
D|2---2-2-2-2-2---2-2-2---2-2-2---2-2-2---2-2-2-------5---3-------|.

F|----------------------------------------------------------------|
C|----------------------------------------------------------------|
G|----------------------------------------------------------------|
D|2---2-2-2-2-3---5-2-2-2-2---5---2-2-2-2-2---3---5---3---0-------|

F|----------------------------------------------------------------|
C|----------------------------------------------------------------|
G|----------------------------------------------------------------|
D|2---2-2-2-2-2---2-2-2---2-2-2---2-2-2---2-2-2---2-2-2-2-2-------|

1:50

F|----------------------------------------------------------------|.
C|----------------------------------------------------------------|.
G|----------------------------------------------------------------|.
D|5---5-5-5-5-5---0-0-0---0-0-2---4-4-4---4-4-4---4-4-4---4-4-4---|.
                                                                   . x3
F|----------------------------------------------------------------|.
C|----------------------------------------------------------------|.
G|----------------4-----------------------------------------------|.
D|5---5-5-5-5-5---------------5---4-4-4---4-4-4---4-4-4---4-4-4---|.

F|----------------------------------------------------------------|
C|----------------------------------------------------------------|
G|----------------------------------------------------------------|
D|5---5-5-5-5-5---0-0-0---0-0-2---4-4-4---4-4-4---4-4-4---4-4-4---|

F|----------------------------------------------------------------|
C|----------------------------------------------------------------|
G|----------------4-----------------------------------------------|
D|5---5-5-5-5-5---------------5---4-------------------------------|

2:21

F|----------------------------------------------------------------|
C|----------------------------------------------------------------| x4
G|------------------------------------------------7---------------|
D|4-4-4-4-4-4-4-4-4-4-4-4-4-4-4---5-5-5-5-5-5-5-----------8-------|

2:39

F|----------------------------------------------------------------|
C|----------------------------------------------------------------|
G|----------------------------------------------------------------|
D|4---------------------------------------------------------------|

F|----------------------------------------------------------------|
C|----------------------------------------------------------------|
G|----------------------------------------------------------------|
D|3-3-------------3---------------3-3-------------3---------------|

F|----------------------------------------------------------------|
C|----------------------------------------------------------------|
G|----------------------------------------------------------------|
D|4-4-------------4---------------4-4-------------4---------------|

F|----------------------------------------------------------------|
C|----------------------------------------------------------------|
G|----------------------------------------------------------------|
D|3-3-------------3---------------3-3-------------3---3---3---3---|

2:57

F|----------------------------------------------------------------|.
C|----------------------------------------------------------------|.
G|------------7-----------7-6-----------------6---------------6-7-|.
D|4-4-4-4-4-------4-4-4-------7---4-4-4-4-4-------4-4-4---6-7-----|.
                                                                   . x2
F|----------------------------------------------------------------|.
C|----------------------------------------------------------------|.
G|------------5-----------6-5-----------------5---------------5-6-|.
D|3-3-3-3-3-------3-3-3-------5---3-3-3-3-3-------3-3-3---5-6-----|.

3:14

F|----------------------------------------------------------------|
C|----------------------------------------------------------------| x3
G|------------------------------------------------7---------------|
D|4-4-4-4-4-4-4-4-4-4-4-4-4-4-4---5-5-5-5-5-5-5-----------8-------|

F|-----------------------------------------------------------------|
C|-----------------------------------------------------------------|
G|------------------------------------------------7----------------|
D|4-4-4-4-4-4-4-4-4-4-4-4-4-4-4---5-5-5-5-5-5-5-----------8-------4|

9. Evil Dead

F|----------------------------------------------------------------|.
C|----------------------------------------------------------------|.
G|----------------------------------------------------------------|.
D|5---------------------------------------------------------------|.
                                                                   .
F|----------------------------------------------------------------|.
C|----------------------------------------------------------------|.
G|----------------------------------------------------------------|.
D|3---------------------------------------------------------------|.
                                                                   . x2
F|----------------------------------------------------------------|.
C|----------------------------------------------------------------|.
G|----------------------------------------------------------------|.
D|1---------------------------------------------------------------|.
                                                                   .
F|----------------------------------------------------------------|.
C|----------------------------------------------------------------|.
G|----------------------------------------------------------------|.
D|0---------------------------------------------------------------|.

F|----------------------------------------------------------------|
C|----------------------------------------------------------------|
G|----------------------------------------------------------------|
D|5---------------------------------------------------------------|

0:35

F|----------------------------------------------------------------|
C|----------------------------------------------------------------|
G|7h8-0---------------------------7h8-0---------------------------|
D|----------------------------------------------------------------|

F|------------------------------------|
C|------------------------------------|
G|7h8-0---------------------------7h8-|
D|------------------------------------|

0:43

F|----------------------------------------------------------------|
C|--------7-------8-------7---------------7-------8-------7-------| x2
G|0-0-0-----0-0-----0-0-------7h8-0-0-0-----0-0-----0-0-------7h8-|
D|----------------------------------------------------------------|

F|----------------------------------------------------------------|
C|----------------------------------------------------------------|
G|5---------------7---------------8-------10--8---7---------------|
D|----------------------------------------------------------------|

F|----------------------------------------------------------------|
C|----------------------------------------------------------------|
G|5---------------7---------------8-------10--8---7---5---3---2---|
D|----------------------------------------------------------------|

Repeat from 0:43 3 times.






1:56

F|----------------------------------------------------------------|
C|--------7-------8-------7---------------7-------8-------7-------| x2
G|0-0-0-----0-0-----0-0-------7h8-0-0-0-----0-0-----0-0-------7h8-|
D|----------------------------------------------------------------|

F|----------------------------------------------------------------|
C|----------------------------------------------------------------|
G|0---------------------------------------------------------------|
D|----------------------------------------------------------------|

2:10

F|----------------------------------------------------------------|
C|----------------------------------------------------------------|
G|7h8-0---------------------------7h8-0---------------------------|
D|----------------------------------------------------------------|

F|------------------------------------|
C|------------------------------------|
G|7h8-0---------------------------7h8-|
D|------------------------------------|

F|----------------------------------------------------------------|
C|--------7-------8-------7---------------7-------8-------7-------| x2
G|0-0-0-----0-0-----0-0-------7h8-0-0-0-----0-0-----0-0-------7h8-|
D|----------------------------------------------------------------|

F|----------------------------------------------------------------|
C|----------------------------------------------------------------|
G|5---------------7---------------8-------10--8---7---------------|
D|----------------------------------------------------------------|

F|----------------------------------------------------------------|
C|----------------------------------------------------------------|
G|5---------------7---------------8-------10--8---7---5---3---2---|
D|----------------------------------------------------------------|

F|----------------------------------------------------------------|
C|--------7-------8-------7---------------7-------8-------7-------| x2
G|0-0-0-----0-0-----0-0-------7h8-0-0-0-----0-0-----0-0-------7h8-|
D|----------------------------------------------------------------|

F|----------------------------------------------------------------|
C|----------------------------------------------------------------|
G|5---------------7---------------8-------10--8---7---------------|
D|----------------------------------------------------------------|

F|-----------------------------------------------------------------|
C|-----------------------------------------------------------------|
G|5---------------7---------------8-------10--8---7---5---3---2---0|
D|-----------------------------------------------------------------|

10. Scream Bloody Gore

0:05

F|----------------------------------------------------------------|
C|----------------------------------------------------------------|
G|----------------------------------------------------------------|
D|0---1---3---4---0---1---3---4---0---1---3---4---0---1---3---4---|

0:09

F|----------------------------------------------------------------|
C|----------------------------------------------------------------| x6
G|--------------------------------5---4-----------8---7-----------|
D|3---2---0-------3---2---0---------------6-6-6-----------9-9-9---|

F|----------------------------------------------------------------|
C|--------7-----------6-------------------7-----------6-----------| x2
G|5---8-------8---7-------7---6---5---8-------8---7-------7---6---|
D|----------------------------------------------------------------|

F|----------------------------------------------------------------|
C|----------------------------------------------------------------| x2
G|----------------------------------------------------------------|
D|0---------------1---------------3-------------------------------|

0:54

F|----------------------------------------------------------------|
C|----------------------------------------------------------------| x4
G|----------------------------------------------------------------|
D|0-0-0-0-0-0-0---1-1-1-1-1-1-1---4-3-3---4-3-3---4-3-3---4-3-3---|

F|----------------------------------------------------------------|
C|----------------------------------------------------------------| x4
G|----------------------------------------------------------------|
D|0---1---3---4---0---1---3---4---0---1---3---4---0---1---3---4---|

Repeat from 0:09





2:49

F|----------------------------------------------------------------|
C|----------------------------------------------------------------|
G|5---------------6-----------------------------------------------|
D|--------------------------------7-------------------------------|

F|----------------------------------------------------------------|
C|----------------------------------------------------------------|
G|5---------------6-----------------------------------------------|
D|--------------------------------5-------------------------------|

F|----------------------------------------------------------------|
C|----------------------------------------------------------------|
G|5---------------6-----------------------------------------------|
D|--------------------------------7-------------------------------|

F|--------------------------------|
C|--------------------------------|
G|5---------------6---------------|
D|--------------------------------|

3:06

F|----------------------------------------------------------------|.
C|----------------------------------------------------------------|.
G|----------------------------------------------------------------|.
D|5-------5---5---5-------5---5---4-------4---4---4-------4---4---|.
                                                                   .
F|----------------------------------------------------------------|.
C|------------------------------------------------9-------8-------|.
G|--------------------------------7---8---7-----------------------|.
D|5-------5---5---5-------5---5-----------------------------------|.
                                                                   . 
F|----------------------------------------------------------------|. x3
C|----------------------------------------------------------------|.
G|----------------------------------------------------------------|.
D|5-------5---5---5-------5---5---8-------8---8---8-------8---8---|.
                                                                   .
F|----------------------------------------------------------------|.
C|------------------------------------------------9-------8-------|.
G|--------------------------------7---8---7-----------------------|.
D|5-------5---5---5-------5---5-----------------------------------|.

3:42

F|----------------------------------------------------------------|.
C|----------------------------------------------------------------|.
G|5-------5---5-------5---5-------5---5-------5-------------------|.
D|------------------------------------------------7-------7---7---|.
                                                                   .
F|----------------------------------------------------------------|.
C|----------------------------------------------------------------|. x2
G|----------------------------------------------------------------|.
D|----7---7-------7---7-------7---6---6---6---6---6---6---6---6---|.
                                                                   .
F|----------------------------------------------------------------|.
C|----------------------------------------------------------------|.
G|----------------------------------------------------------------|.
D|6---6---6---6---6---6---6---6---6---6---6---6---6---6-----------|.

4:01

F|----------------------------------------------------------------|.
C|----------------------------------------------------------------|.
G|5---5---5---5---5---5---5---5---5---5---------------------------|.
D|------------------------------------------------7---7---7---7---|.
                                                                   .
F|----------------------------------------------------------------|.
C|----------------------------------------------------------------|.
G|----------------------------------------------------------------|.
D|7---7---7---7---7---7-----------6---6---6---6---6---6---6---6---|. x2
                                                                   .
F|----------------------------------------------------------------|.
C|----------------------------------------------------------------|.
G|----------------------------------------------------------------|.
D|6---6---6---6---6---6---6---6---6---6---6---6---6---6-----------|.

4:19

F|----------------------------------------------------------------|
C|--------7-----------6-------------------7-----------6-----------|
G|5---8-------8---7-------7---6---5---8-------8---7-------7---6---|
D|----------------------------------------------------------------|

F|-----------------------------------------------------------------|
C|--------7-----------6-------------------7-----------6------------|
G|5---8-------8---7-------7---6---5---8-------8---7-------7---6---5|
D|-----------------------------------------------------------------|

11. Beyond The Unholy Grave

0:03

F|----------------------------------------------------------------|
C|----------------------------------------------------------------| x2
G|3---5---3---0---2---------------2---------------2---------------|
D|----------------------------------------------------------------|

F|----------------|
C|----------------|
G|3---5---3---0---|
D|----------------|

F|----------------------------------------------------------------|
C|----------------------------------------------------------------| x2
G|2-------------------------------2-------------------------------|
D|----------------------------------------------------------------|

0:20

F|----------------------------------------------------------------|
C|----------------3-------2-----------------------3-------2-------| x4
G|2-2-2-2-2-2-2-------2-------3---2-2-2-2-2-2-2-------2-------3---|
D|----------------------------------------------------------------|

F|----------------------------------------------------------------|
C|----------------------------------------------------------------| x6
G|2---2---2-------------------------------------------------------|
D|----------------3---3---3-------2---2---2-------0---0---0-------|

F|----------------------------------------------------------------|
C|----------------3-------2-----------------------3-------2-------|
G|2-2-2-2-2-2-2-------2-------3---2-2-2-2-2-2-2-------2-------3---|
D|----------------------------------------------------------------|

1:03

F|--------------------------------|
C|--------------------------------|
G|2-------3-------5-------3---0---|
D|--------------------------------|

F|----------------------------------------------------------------|
C|----------------------------------------------------------------| x2
G|2-2-2-2-2-2-2-2-2-2-2-2-2-2-2---2-------3-------5-------3---0---|
D|----------------------------------------------------------------|

Repeat from 0:20






2:09

F|----------------------------------------------------------------|
C|----------------3-------2-----------------------3-------2-------| x4
G|2-2-2-2-2-2-2-------2-------3---2-2-2-2-2-2-2-------2-------3---|
D|----------------------------------------------------------------|

F|----------------------------------------------------------------|
C|----------------------------------------------------------------| x2
G|2-------------------------------2-------------------------------|
D|--------3-------2-------0---------------3-------2-------0-------|

F|----------------------------------------------------------------|
C|----------------3-------2-----------------------3-------2-------|
G|2-2-2-2-2-2-2-------2-------3---2-2-2-2-2-2-2-------2-------3---|
D|----------------------------------------------------------------|

2:41

F|--------------------------------|
C|--------------------------------|
G|2-------3-------5-------3---0---|
D|--------------------------------|

F|----------------------------------------------------------------|
C|----------------------------------------------------------------| x2
G|2-2-2-2-2-2-2-2-2-2-2-2-2-2-2---2-------3-------5-------3---0---|
D|----------------------------------------------------------------|

F|----------------------------------------------------------------|
C|----------------3-------2-----------------------3-------2-------|
G|2-2-2-2-2-2-2-------2-------3---2-2-2-2-2-2-2-------2-------3---|
D|----------------------------------------------------------------|

F|-----------------------------------------------------------------|
C|----------------3-------2-----------------------3-------2--------|
G|2-2-2-2-2-2-2-------2-------3---2-2-2-2-2-2-2-------2-------3---2|
D|-----------------------------------------------------------------|

12. Land Of No Return

F|--------|
C|--------|
G|3---2---|
D|--------|

F|----------------------------------------------------------------|
C|----------------------------------------------------------------| x4
G|----------------2---------------1---------------4-------3-------|
D|0---------------------------------------------------------------|

0:20

F|----------------------------------------------------------------|
C|----------------------------------------------------------------| x10
G|----------------5---------------4-------------------------------|
D|2---2---2-----------2---2-----------2---2-------3-----5-----3---|

F|----------------------------------------------------------------|
C|----------------------------------------------------------------|
G|--------7---8-------7---8---------------7---8-------7---8-------|
D|5-5-5-----------5-----------8-7-5-5-5-----------5-----------6---|

F|----------------------------------------------------------------|
C|----------------------------------------------------------------|
G|--------7---8-------7---8---------------7---8-------7---8-------|
D|5-5-5-----------5-----------8-7-5-5-5-----------5-----------0---|

0:58

F|----------------------------------------------------------------|
C|----------------------------------------------------------------| x2
G|------------------------2---3---------------------------3---2---|
D|3-2-0-0-0---3-2-0-0-0-----------3-2-0-0-0---3-2-0-0-0-----------|

1:07

F|----------------------------------------------------------------|
C|----------------------------------------------------------------| x2
G|----------------2---------------1---------------4-------3-------|
D|0---------------------------------------------------------------|

F|----------------------------------------------------------------|
C|----------------------------------------------------------------| x10
G|----------------5---------------4-------------------------------|
D|2---2---2-----------2---2-----------2---2-------3-----5-----3---|

1:45

F|----------------------------------------------------------------|
C|----------------------------------------------------------------|
G|--------7---8-------7---8---------------7---8-------7---8-------|
D|5-5-5-----------5-----------8-7-5-5-5-----------5-----------6---|

F|----------------------------------------------------------------|
C|----------------------------------------------------------------|
G|--------7---8-------7---8---------------7---8-------7---8-------|
D|5-5-5-----------5-----------8-7-5-5-5-----------5-----------0---|

F|----------------------------------------------------------------|
C|----------------------------------------------------------------| x2
G|------------------------2---3---------------------------3---2---|
D|3-2-0-0-0---3-2-0-0-0-----------3-2-0-0-0---3-2-0-0-0-----------|

2:03

F|----------------------------------------------------------------|
C|----------------------------------------------------------------| x6
G|----------------------------------------------------------------|
D|2-2-2---3-3-3---2-2-2---5-5-5---2-2-2---5-5-5---3-3-3-3-3---0---|

2:29

F|----------------------------------------------------------------|
C|----------------------------------------------------------------| x4
G|----------------6-6-6-------------------------------------------|
D|7-7-7-7-7-7-7-----------6-6-6---7-7-7-7-7-7-7---6-6-6---3-3-3---|

F|----------------------------------------------------------------|
C|----------------------------------------------------------------|
G|------------------------2---3---------------------------3---2---|
D|3-2-0-0-0---3-2-0-0-0-----------3-2-0-0-0---3-2-0-0-0-----------|

F|-----------------------------------------------------------------|
C|-----------------------------------------------------------------|
G|------------------------2---3---------------------------3---2----|
D|3-2-0-0-0---3-2-0-0-0-----------3-2-0-0-0---3-2-0-0-0-----------0|
Добавлено: 13.12.2015
Другие материалы по этой песне:
  • Аккорды и текст

Страница создана 13.12.2015
http://primanota.ru/death/scream-bloody-gore-album-chords.htm
Привет, Гость.
Предлагаем пройти революционный курс по гитаре.
Подарок от PrimaNota.Ru, забирай!