PrimaNota.ru - самый крупный в мире бесплатный архив песенных текстов, аккордов, табулатур и нот


Death - The 2 - таба, видео

Регистрация Запомнить меня
Войти через:  Facebook Google Twitter Vk Yandex Mail.ru

Death - The 2 - таба, видео

Печатать
Просмотров: 118
Уроки эстрадного вокала в Санкт-Петербурге
Death of an Era
The Illusionist pt.2
(A,E,A,D,G,B,E)

* - Harmonic
. - Palm mute
^ - Beand
~ - Vibrato
()- Tremolo

[--------------------------------]
[--------------------------------]
[--------------------------------]
[--------------------------------]
[--------------------------------]
[-5-8---4-5---5-7---4-5---5-8----]
[-----0-----0-----0-----0-----00-]
PM    .     .     .     .     .. 

[----------------------------------------------------------------]
[----------------------------------------------------------------]
[----------------------------------------------------------------]
[----------------------------------------------------------------]
[----------------------------------------------------------------]
[-5-8---4-5---5-7---4-5---5-8----5-8---4-5---5-7-1-4-4-5-5-7-7-8-]
[-----0-----0-----0-----0-----00-----0-----0---------------------]
PM    .     .     .     .     ..     .     .                     

[-------------------------------------------------------------------------------]
[-------------------------------------------------------------------------------]
[-----------------------------------12-14---------------------------------------]
[--------------------------12-14-15---------10-9--------------------------------]
[-----------------10/12-15-----------------------12/14-10-------------5-7-------]
[-8-12-8-12-10-13-----------------------------------------12-10-5-7-8-----8-7-4-]
[-----------------------------------------0-------------------------------------]
PM                                        .                     . . . .         

[----------------------------------------------------------------]
[----------------------------------------------------------------]
[----------------------------------------------------------------]
[----------------------------------------------------------------]
[----------------------------------------------------------------]
[-5-8---4-5---5-7---4-5---5-8----5-8---4-5---5-7-1-4-4-5-5-7-7-8-]
[-----0-----0-----0-----0-----00-----0-----0---------------------]
PM    .     .     .     .     ..     .     .                     

[-------------------------------------------------------------------------------]
[-------------------------------------------------------------------------------]
[-----------------------------------12-14---------------------------------------]
[--------------------------12-14-15---------10-9--------------------------------]
[-----------------10/12-15-----------------------12/14-10-------------5-7-------]
[-8-12-8-12-10-13-----------------------------------------12-10-5-7-8-----8-7-4-]
[-----------------------------------------0-------------------------------------]
PM                                        .                     . . . .         

[-----------------------------------------------------------------------------------------------]
[-----------------------------------------------------------------------------------------------]
[-----------------------------------------------------------------------------------------------]
[-----------------------------------------------------------------------------------------------]
[-7--------7----------------7-----------5-----7-----5-------------------------------------------]
[---8-7-4----8-7-4--000-000---8-7-4-5-4---7-5---8-7---7-000-000-----000-000---000-000---000-000-]
[-------------------000-000-----------------------------000-000-----000-000---000-000---000-000-]
PM                  ... ...                             ... ...     ... ...   ... ...   ... ... 

[-----------------------------------------------------------------------------------------------]
[-----------------------------------------------------------------------------------------------]
[-----------------------------------------------------------------------------------------------]
[-----------------------------------------------------------------------------------------------]
[-7--------7----------------7-----------5-----7-----5-------------------------------------------]
[---8-7-4----8-7-4--000-000---8-7-4-5-4---7-5---8-7---7-000-000-----000-000---000-000---000-000-]
[-------------------000-000-----------------------------000-000-----000-000---000-000---000-000-]
PM                  ... ...                             ... ...     ... ...   ... ...   ... ... 

[---------------------------------------------------------------------------------]
[---------------------------------------------------------------------------------]
[---------------------------------------------------------------------------------]
[---------------------------------------------------------------------------------]
[-----------------------------------------7-----------------------5-----7-----5---]
[-000-000-----000-000---000-000---000-000---8-7-4-000-000-8-4-5-4---7-5---8-7---7-]
[-000-000-----000-000---000-000---000-000---------000-000-------------------------]
PM... ...     ... ...   ... ...   ... ...         ... ...

[----------------------------------------------------------------]
[----------------------------------------------------------------]
[----------------------------------------------------------------]
[----------------------------------------------------------------]
[----------------------------------------------------------------]
[-5-8---4-5---5-7---4-5---5-8----5-8---4-5---5-7-1-4-4-5-5-7-7-8-]
[-----0-----0-----0-----0-----00-----0-----0---------------------]
PM    .     .     .     .     ..     .     .                     

[-------------------------------------------------------------------------------]
[-------------------------------------------------------------------------------]
[-----------------------------------12-14---------------------------------------]
[--------------------------12-14-15---------10-9--------------------------------]
[-----------------10/12-15-----------------------12/14-10-------------5-7-------]
[-8-12-8-12-10-13-----------------------------------------12-10-5-7-8-----8-7-4-]
[-----------------------------------------0-------------------------------------]
PM                                        .                     . . . .         

[---------3*-----------------------------------3*--------------------------]
[---------3*-----------------------------------3*--------------------------]
[---------3*-----------------------------------3*--------------------------]
[---------3*-----------------------------------3*--------------------------]
[--------------------------------------------------------------------------]
[-000-000------------------------------000-000-----------------------------]
[-111-111----0-0-00-0-00-0-0-0-00-0--0-111-111----00-0-00-0-0-0-00-3-6-4-7-]
PM... ...                              ... ...                                 

[---------3*-----------------------------------3*--------------------------]
[---------3*-----------------------------------3*--------------------------]
[---------3*-----------------------------------3*--------------------------]
[---------3*-----------------------------------3*--------------------------]
[--------------------------------------------------------------------------]
[-000-000------------------------------000-000-----------------------------]
[-111-111----0-0-00-0-00-0-0-0-00-0--0-111-111----00-0-00-0-0-0-00-3-6-4-7-]
PM... ...                              ... ...                                 

[----------------------------------------------------------------------------------------------]
[----------------------------------------------------------------------------------------------]
[------------------------------------------6-9-----------10-7----------------------------------]
[--------------------------------------5-8--------------------9-6------------------------------]
[---------------------------------4-7-----------------------------8-5------8-5--------------7*-]
[-----------------------------3-6-------------------------------------7-4------7-4--4-7-5-8----]
[-3-6-4-7--3-6-4-7---3-6-4-7--------------------3-6-4-7----------------------------------------]

[----------------------------------------------------------------------------------------------]
[----------------------------------------------------------------------------------------------]
[------------------------------------------6-9-----------10-7----------------------------------]
[--------------------------------------5-8--------------------9-6------------------------------]
[---------------------------------4-7-----------------------------8-5------8-5--------------7*-]
[-----------------------------3-6-------------------------------------7-4------7-4--4-7-5-8----]
[-3-6-4-7--3-6-4-7---3-6-4-7--------------------3-6-4-7----------------------------------------]

[---------------]
[---------------]
[---------------]
[-------5-6-8-9-]
[---------------]
[-000-0-3-4-6-7-]
[-000-0---------]
PM... .         

[----------------------------------------------------------------------------------------------]
[----------------------------------------------------------------------------------------------]
[------------------------------------------6-9-----------10-7----------------------------------]
[--------------------------------------5-8--------------------9-6------------------------------]
[---------------------------------4-7-----------------------------8-5------8-5--------------7*-]
[-----------------------------3-6-------------------------------------7-4------7-4--4-7-5-8----]
[-3-6-4-7--3-6-4-7---3-6-4-7--------------------3-6-4-7----------------------------------------]

[----------------------------------------------------------------------------------------------]
[----------------------------------------------------------------------------------------------]
[------------------------------------------6-9-----------10-7----------------------------------]
[--------------------------------------5-8--------------------9-6------------------------------]
[---------------------------------4-7-----------------------------8-5------8-5--------------7*-]
[-----------------------------3-6-------------------------------------7-4------7-4--4-7-5-8----]
[-3-6-4-7--3-6-4-7---3-6-4-7--------------------3-6-4-7----------------------------------------]

[----------------------------------------------------------]
[----------------------------------------------------------]
[----------------------------------------------------------]
[----------------------------------------------------------]
[-4--5--1---4-5-4-0-1--0--4----4--5--1---4-5-4-0-4--1--0---]
[-4--5--1---4-5-4-0-1--0--4----4--5--1---4-5-4-0-4--1--0---]
[-4--5--1---4-5-4-0-1--0--4----4--5--1---4-5-4-0-4--1--0---]

[----------------------------------------------------------]
[----------------------------------------------------------]
[----------------------------------------------------------]
[----------------------------------------------------------]
[-4--5--1---4-5-4-0-1--0--4----4--5--1---4-5-4-0-4--1--0---]
[-4--5--1---4-5-4-0-1--0--4----4--5--1---4-5-4-0-4--1--0---]
[-4--5--1---4-5-4-0-1--0--4----4--5--1---4-5-4-0-4--1--0---]

[----------------------------]
[----------------------------]
[----------------------------]
[----------------------------]
[-4--5--1---4-5-4-0-1--0--4--]
[-4--5--1---4-5-4-0-1--0--4--]
[-4--5--1---4-5-4-0-1--0--4--]

[---------------------------------------------------------------------]
[---------------------------------------------------------------------]
[---------------------------------------------------------------------]
[---------------------------------------------------------------------]
[---------------------------------------------------------------------]
[---------------------------------------------------------------------]
[-444444-555555-111--1111-1-1-11-11-444444-111111-000--0000-0-0-00-00-]
PM...... ...... ...                 ...... ...... ...                 

[---------------------------------------------------------------------]
[---------------------------------------------------------------------]
[---------------------------------------------------------------------]
[---------------------------------------------------------------------]
[---------------------------------------------------------------------]
[---------------------------------------------------------------------]
[-444444-555555-111--1111-1-1-11-11-444444-111111-000--0000-0-0-00-00-]
PM...... ...... ...                 ...... ...... ...                 

[-------------------------------------------------------------------------------------]
[-------------------------------------------------------------------------------------]
[-------------------------------------------------------------------------------------]
[-------------------------------------------------------------------------------------]
[-------------------------------------------------------------------------------------]
[-000-000-----000-000---000-000---000-000-----000-000-----000-000---000-000---000-000-]
[-000-000-----000-000---000-000---000-000-----000-000-----000-000---000-000---000-000-]
PM... ...     ... ...   ... ...   ... ...     ... ...     ... ...   ... ...   ... ... 

[-------------------------------------------------------------------------------------]
[-------------------------------------------------------------------------------------]
[-------------------------------------------------------------------------------------]
[-------------------------------------------------------------------------------------]
[-------------------------------------------------------------------------------------]
[-000-000-----000-000---000-000---000-000-----000-000-----000-000---000-000---000-000-]
[-000-000-----000-000---000-000---000-000-----000-000-----000-000---000-000---000-000-]
PM... ...     ... ...   ... ...   ... ...     ... ...     ... ...   ... ...   ... ... 

[-----------------------------------------]
[-----------------------------------------]
[-----------------------------------------]
[-----------------------------------------]
[-7-----------------------5-----7-----5---]
[---8-7-4-000-000-8-4-5-4---7-5---8-7---7-]
[---------000-000-------------------------]
PM        ... ...

[----------------------------------------------------------------]
[----------------------------------------------------------------]
[----------------------------------------------------------------]
[----------------------------------------------------------------]
[----------------------------------------------------------------]
[-5-8---4-5---5-7---4-5---5-8----5-8---4-5---5-7-1-4-4-5-5-7-7-8-]
[-----0-----0-----0-----0-----00-----0-----0---------------------]
PM    .     .     .     .     ..     .     .                     

[-------------------------------------------------------------------------------]
[-------------------------------------------------------------------------------]
[-----------------------------------12-14---------------------------------------]
[--------------------------12-14-15---------10-9--------------------------------]
[-----------------10/12-15-----------------------12/14-10-------------5-7-------]
[-8-12-8-12-10-13-----------------------------------------12-10-5-7-8-----8-7-4-]
[-----------------------------------------0-------------------------------------]
PM                                        .                     . . . .         

[------------------------]
[------------------------]
[------------------------]
[------------------------]
[-------------------0----]
[-5-8---4-5---5-7---0----]
[-----0-----0-----0-0----]
PM    .     .     .      
Добавлено: 29.06.2015
Другие материалы по этой песне:
  • Аккорды и текст

Страница создана 29.06.2015
http://primanota.ru/death/2-chords.htm
Привет, Гость.
Предлагаем пройти революционный курс по гитаре.
Подарок от PrimaNota.Ru, забирай!