PrimaNota.ru - самый крупный в мире бесплатный архив песенных текстов, аккордов, табулатур и нот


Death - The 3 - таба, видео

Регистрация Запомнить меня
Войти через:  Facebook Google Twitter Vk Yandex Mail.ru

Death - The 3 - таба, видео

Печатать
Просмотров: 156
Уроки эстрадного вокала в Санкт-Петербурге
Death of an Era
Shape Shifter
(A,E,A,D,G,B,E)

* - Harmonic
~ - Vibrato
. - Palm mute
^ - Bend
()- Tremolo

[-------------------------------------]
[-------------------------------------]
[-/13-15~-----------------------------]
[---------15-16-13-16-15----8~-7h8p7~-]
[------------------------16-----------]
[-------------------------------------]
[-------------------------------------]
[  Lead and Rythm Guitar
[-----------------------------------------------------------------------------]
[-----------------------------------------------------------------------------]
[-----------------------------------------------------------------------------]
[-----------------------------------------------------------------------------]
[-----------------------------------------------------------------------------]
[-000-0-0--0-0-0---000-00-000-0-0--0-0-0-----000-0-0--0-0-0----000-0-0--0-0-0-]
[-000-0-0--0-0-0---000-00-000-0-0--0-0-0---0-000-0-0--0-0-0----000-0-0--0-0-0-]
PM... . .  . . .   ... .. ... . .  . . .     ... . .  . . .    ... . .  . . . 

[---------------------------------------------16-17--------19--------]
[-------------------------------16---------16-------18-17~----20-19~-]
[---------------------14-16-17-----15--17----------------------------]
[------------14-15-17------------------------------------------------]
[--/12-14-15---------------------------------------------------------]
[--------------------------------------------------------------------]
[--------------------------------------------------------------------]
[  Lead and Rythm Guitar
[-----------------------------------------------------------------------------]
[-----------------------------------------------------------------------------]
[-----------------------------------------------------------------------------]
[-----------------------------------------------------------------------------]
[-----------------------------------------------------------------------------]
[-000-0-0--0-0-0---000-00-000-0-0--0-0-0-----000-0-0--0-0-0----000-0-0--0-0-0-]
[-000-0-0--0-0-0---000-00-000-0-0--0-0-0-----000-0-0--0-0-0----000-0-0--0-0-0-]
PM... . .  . . .   ... .. ... . .  . . .     ... . .  . . .    ... . .  . . . 

[-------------------------------------------------------------------------------------------]
[-------------------------------------------------------------------------------------------]
[-------------------------------------------------------------------------------------------]
[-------------------------------------------------------------------------------------------]
[----------------1-----1-0-1----------------------------------------------------------------]
[--------------------------------000-00--0-0-0---000-0-0--0-0-0-1---------1-000-0-0--0-0-0--]
[-000-0-0--0-0-0---3-0-------3-0-000-00--0-0-0---000-0-0--0-0-0---4-0-1-4---000-0-0--0-0-0--]
PM... . .  . . .                 ... ..  . . .   ... . .  . . .             ... . .  . . .  

[--------------------------------------------------------------------|
[--------------------------------------------------------------------|
[--------8------7------7-------------8------7------7-------------7---|
[---11-----11-----11-----11-----11-----11-----11-----11-----10-------|
[-9----9------9------9------9-9----9------9------9------9-8----8-----|
[--------------------------------------------------------------------|
[--------------------------------------------------------------------|

---------------------------------------------]
--------------------------------------6------]
---6------6-------------7------6-------------]
-----10-----10-----10-----10-----10-----10---]
--------8------8-8----8------8------8------8-]
---------------------------------------------]
---------------------------------------------]
[  Lead and Rythm Guitar
[----------------------------------------------------------------------------------]
[----------------------------------------------------------------------------------]
[----------------------------------------------------------------------------------]
[----------------------------------------------------------------------------------]
[----------------------------------------------------------------------------------]
[-000-0-0--0-0-0----000-0-0--0-0-0-000-0-0--0-0-0-000-0-0--0-0-0----000-0-0--0-0-0-]
[-000-0-0--0-0-0----000-0-0--0-0-0-000-0-0--0-0-0-000-0-0--0-0-0----000-0-0--0-0-0-]
PM... . .  . . .    ... . .  . . . ... . .  . . . ... . .  . . .    ... . .  . . .

[---------------------------------------------------------]
[---------------------------------------------------------]
[--------7------6------6-------------7------6-------------]
[---10------------10-----10-----10-----10-----10-----10---]
[-8----8-------------8------8-8----8------8------8------8-]
[---------------------------------------------------------]
[---------------------------------------------------------]
[  Lead and Rythm Guitar
[----------------------------------------------------------------------------------------------]
[----------------------------------------------------------------------------------------------]
[----------------------------------------------------------------------------------------------]
[----------------------------------------------------------------------------------------------]
[--------------------------------------------------------------------------------------------0-]
[-000-0-0--0-0-0----000-0-0--------000-0-0--0-0-0-000-0-0--0-0-0-1---------1-000-0-0--0-0-0--0-]
[-000-0-0--0-0-0----000-0-0--------000-0-0--0-0-0-000-0-0--0-0-0---4-0-1-4---000-0-0--0-0-0--0-]
PM... . .  . . .    ... . .        ... . .  . . . ... . .  . . .             ... . .  . . .    

[-----------------------------------------------------------------]
[-----------------------------------------------------------------]
[-----------------------------------------------------------------]
[-----------------------------------------------------------------]
[-----------------------------------------------------------------]
[---------------00-0-00-0-0-00-------------------1-00-0-00-0-0-00-]
[-1111-1-1111-1-00-0-00-0-0-00-1111-4-4-00-0-1-4---00-0-00-0-0-00-]
PM              .. . .. . . ..                     .. . .. . . ..

[---------------------]
[---------------------]
[---------------------]
[---------------------]
[---------------------]
[---------------------]
[-00-1-0-1^-----------]
PM.. . .              
[  Lead and Rythm Guitar
[---------------------]
[---------------------]
[---------------------]
[---------------------]
[---------------------]
[---------------------]
[-----------00-1-0-1^-]
PM          .. . .    

[------------------------------------------------------------]
[------------------------------------------------------------]
[------------------------------------------------------------]
[------------------------------------------------------------]
[------------------------------------------------------------]
[---------------00-0-00-0-0-00-------------------1-00-0-00-0-]
[---------------00-0-00-0-0-00-1111-4-4-00-0-1-4---00-0-00-0-]
PM              .. . .. . . ..                     .. . .. . ]

[--------------------------------------------------------]
[--------------------------------------------------------]
[--------------------------------------------------------]
[--------------------------------------------------------]
[--------------------------------------------------------]
[-000----000-0--0-0-000----000-0----000-000--0-0-000-000-]
[-000----000-0--0-0-000----000-0----000-000--0-0-000-000-]
PM...    ... .  . . ...    ... .    ... ...  . . ... ... 
[  Lead and Rythm Guitar
[-----------------------------------------------------------------------------------------]
[-----------------------------------------------------------------------------------------]
[-----------------------------------------------------------------------------------------]
[-----------------------------------------------------------------------------------------]
[------------------------------------------------------------------------(7)---1010101212-]
[-----(8)--------------(7)--------------(5)-------------(8)--------------------7-7-7-8-8--]
[-(0)-----(12)-(0)-(7)-----(10)-(0)-(5)-----(8)-(7)-(0)-----(12)-(0)-(7)-----7-7-7-7-8-8--]

[---------------------------------------------------------------]
[---/13-12----------13/15------------------/13-12---------------]
[-9--------12-------------12-------12/14-9--------12------------]
[-------------14-12----------14-12-------------------14-12~-10~-]
[---------------------------------------------------------------]
[---------------------------------------------------------------]
[---------------------------------------------------------------]
[  Lead and Rythm Guitar
[-----------------------------------------------------------------------------------------]
[-----------------------------------------------------------------------------------------]
[-----------------------------------------------------------------------------------------]
[-----------------------------------------------------------------------------------------]
[------------------------------------------------------------------------(7)---1010101212-]
[-----(8)--------------(7)--------------(5)-------------(8)--------------------7-7-7-8-8--]
[-(0)-----(12)-(0)-(7)-----(10)-(0)-(5)-----(8)-(7)-(0)-----(12)-(0)-(7)-----7-7-7-7-8-8--]

[------------------------------------------------------------------]
[---/13-12----------13/15------------------/13-12------------------]
[-9--------12-------------12-------12/14-9--------12---------------]
[-------------14-12----------14-12-------------------14-12~-14-10~-]
[------------------------------------------------------------------]
[------------------------------------------------------------------]
[------------------------------------------------------------------]
[  Lead and Rythm Guitar
[-----------------------------------------------------------------------------------------]
[-----------------------------------------------------------------------------------------]
[-----------------------------------------------------------------------------------------]
[-----------------------------------------------------------------------------------------]
[------------------------------------------------------------------------(7)---1010101212-]
[-----(8)--------------(7)--------------(5)-------------(8)--------------------7-7-7-8-8--]
[-(0)-----(12)-(0)-(7)-----(10)-(0)-(5)-----(8)-(7)-(0)-----(12)-(0)-(7)-----7-7-7-7-8-8--]

[-----------------------------------------------------------]
[-----------------------------------------------------------]
[-----------------------------------------------------------]
[-----------------------------------------------------------]
[-----------------------------------------------------------]
[-----------------------------------------------------------]
[-00-0-00-0-00-0-00-00-0--0-00-00-0-00-0-00-0-00-00-0--0-00-]

[--------------------------------------------------------------------------------]
[--------------------------------------------------------------------------------]
[--------------------------------------------------------------------------------]
[--------------------------------------------------------------------------------]
[--------------------------------------------------------------------------------]
[--------------------------------------------------------------------------------]
[-1-111-2-2^-111111-2^-111-1-2-2^-00-1-4-1-0-1-111-2-2^-111111-2^-1-11-11-/5-1-2-]

[-----------------------------------------------------------------------------]
[-----------------------------------------------------------------------------]
[-----------------------------------------------------------------------------]
[-----------------------------------------------------------------------------]
[-----------------------------------------------------------------------5-1-2-]
[-----------------------------------------------------------------------5-1-2-]
[-0-000-1-1^-000000-/12~-0-1-1^-00-1-4-1-0-0-000-1-1^-000000-1^-0-00-00-5-1-2-]

[-------------------------------------------------------------------------------]
[-------------------------------------------------------------------------------]
[-------------------------------------------------------------------------------]
[-------------------------------------------------------------------------------]
[-------------------------------------------------------------------------------]
[-------------------------------------------------------------------------------]
[-1-111-2-2^-1-1-1-2^-111-1-2-2^-00-1-4-1-0-1-111-2-2^-111111-2^-1-11-11-/5-1-2-]

[-----------------------------------------------------------------------------]
[-----------------------------------------------------------------------------]
[-----------------------------------------------------------------------------]
[-----------------------------------------------------------------------------]
[-----------------------------------------------------------------------5-1-2-]
[-----------------------------------------------------------------------5-1-2-]
[-0-000-1-1^-000000-/12~-0-1-1^-00-1-4-1-0-0-000-1-1^-000000-1^-0-00-00-5-1-2-]

[------------------------------------------------------------------]
[------------------------------------------------------------------]
[------------------------------------------------12-12-12/14-14-14-]
[------------------------------------------------------------------]
[------------------------------------------------------------------]
[-000----000-0--000-000----000-0----000-000--0-0-------------------]
[-000----000-0--000-000----000-0----000-000--0-0-------------------]
PM...    ... .  . . ...    ... .    ... ...  . . 
[  Lead and Rythm Guitar
[-----------------------------------------------------------------------------------------]
[-----------------------------------------------------------------------------------------]
[-----------------------------------------------------------------------------------------]
[-----------------------------------------------------------------------------------------]
[------------------------------------------------------------------------(7)---1010101212-]
[-----(8)--------------(7)--------------(5)-------------(8)--------------------7-7-7-8-8--]
[-(0)-----(12)-(0)-(7)-----(10)-(0)-(5)-----(8)-(7)-(0)-----(12)-(0)-(7)-----7-7-7-7-8-8--]

[---------------------------------------------------------------]
[---/13-12----------13/15------------------/13-12---------------]
[-9--------12-------------12-------12/14-9--------12------------]
[-------------14-12----------14-12-------------------14-12~-10~-]
[---------------------------------------------------------------]
[---------------------------------------------------------------]
[---------------------------------------------------------------]
[  Lead and Rythm Guitar
[-----------------------------------------------------------------------------------------]
[-----------------------------------------------------------------------------------------]
[-----------------------------------------------------------------------------------------]
[-----------------------------------------------------------------------------------------]
[------------------------------------------------------------------------(7)---1010101212-]
[-----(8)--------------(7)--------------(5)-------------(8)--------------------7-7-7-8-8--]
[-(0)-----(12)-(0)-(7)-----(10)-(0)-(5)-----(8)-(7)-(0)-----(12)-(0)-(7)-----7-7-7-7-8-8--]

[------------------------------------------------------------------]
[---/13-12----------13/15------------------/13-12------------------]
[-9--------12-------------12-------12/14-9--------12---------------]
[-------------14-12----------14-12-------------------14-12~-14-10~-]
[------------------------------------------------------------------]
[------------------------------------------------------------------]
[------------------------------------------------------------------]
[  Lead and Rythm Guitar
[-----------------------------------------------------------------------------------------]
[-----------------------------------------------------------------------------------------]
[-----------------------------------------------------------------------------------------]
[-----------------------------------------------------------------------------------------]
[------------------------------------------------------------------------(7)---1010101212-]
[-----(8)--------------(7)--------------(5)-------------(8)--------------------7-7-7-8-8--]
[-(0)-----(12)-(0)-(7)-----(10)-(0)-(5)-----(8)-(7)-(0)-----(12)-(0)-(7)-----7-7-7-7-8-8--]

[---------------------------------------------------------------------------------------------------------]
[---------------------------------------------------------------------------------------------------------]
[---------------------------------------------------------------------------------------------------------]
[---------------------------------------------------------------------------------------------------------]
[-------------------------------------------------------------------------------------------------------0-]
[-00----0-0-00--000-00----0000--------0-00-0--00-0-0-00--00----00---00--000-00--0000--0-00-0--00-0-0-00-0-]
[-00----0-0-00--000-00----0000--------0-00-0--00-0-0-00--00----00---00--000-00--0000--0-00-0--00-0-0-00-0-]
  ..    . . ..  ... ..    ....        . .. .  .. . . ..  ..    ..   ..  ... ..  ....  . .. .  ..     . 

[---------------------------------------------------------------]
[---/13-12----------13/15------------------/13-12---------------]
[-9--------12-------------12-------12/14-9--------12------------]
[-------------14-12----------14-12-------------------14-12~-10~-]
[---------------------------------------------------------------]
[---------------------------------------------------------------]
[---------------------------------------------------------------]
[  Lead and Rythm Guitar
[-----------------------------------------------------------------------------------------]
[-----------------------------------------------------------------------------------------]
[-----------------------------------------------------------------------------------------]
[-----------------------------------------------------------------------------------------]
[------------------------------------------------------------------------(7)---1010101212-]
[-----(8)--------------(7)--------------(5)-------------(8)--------------------7-7-7-8-8--]
[-(0)-----(12)-(0)-(7)-----(10)-(0)-(5)-----(8)-(7)-(0)-----(12)-(0)-(7)-----7-7-7-7-8-8--]

[------------------------------------------------------------------]
[---/13-12----------13/15------------------/13-12------------------]
[-9--------12-------------12-------12/14-9--------12---------------]
[-------------14-12----------14-12-------------------14-12~-14-10~-]
[------------------------------------------------------------------]
[------------------------------------------------------------------]
[------------------------------------------------------------------]
[  Lead and Rythm Guitar
[-----------------------------------------------------------------------------------------]
[-----------------------------------------------------------------------------------------]
[-----------------------------------------------------------------------------------------]
[-----------------------------------------------------------------------------------------]
[------------------------------------------------------------------------(7)---1010101212-]
[-----(8)--------------(7)--------------(5)-------------(8)--------------------7-7-7-8-8--]
[-(0)-----(12)-(0)-(7)-----(10)-(0)-(5)-----(8)-(7)-(0)-----(12)-(0)-(7)-----7-7-7-7-8-8--]

[----------------------------------------------------------------------------------------]
[----------------------------------------------------------------------------------------]
[----------------------------------------------------------------------------------------]
[----------------------------------------------------------------------------------------]
[----------------------------------------------------------------------------------------]
[-000-0-0--0-0-0--0-000-0-000-0-0--0-0-0---000-0-0--0-0-0-----000-0-0--0-0-0-1---------1-]
[-000-0-0--0-0-0--0-000-0-000-0-0--0-0-0---000-0-0--0-0-0-----000-0-0--0-0-0---4-0-1-4---]
PM... . .  . . .  . ... . ... . .  . . .   ... . .  . . .     ... . .  . . .             
Добавлено: 29.06.2015
Вам также может быть интересно:
Другие материалы по этой песне:
  • Аккорды и текст

Страница создана 29.06.2015
http://primanota.ru/death/3-chords.htm
Привет, Гость.
Предлагаем пройти революционный курс по гитаре.
Подарок от PrimaNota.Ru, забирай!