PrimaNota.ru - самый крупный в мире бесплатный архив песенных текстов, аккордов, табулатур и нот


Death Note - Mellos Theme - таба, видео

Регистрация Запомнить меня
Войти через:  Facebook Google Twitter Vk Yandex Mail.ru

Death Note - Mellos Theme - таба, видео

Печатать
Просмотров: 568
-------------------------------------------------------------------------------
                         Mellos Theme - Death Note
-------------------------------------------------------------------------------
Tabbed by: Willichka626
Email: Willichka626@hotmail.com

Tuning: Drop D (DADGBE)

If you are like me and find tab a bit overwhelming then do it bit by bit slowly and 
memorize it to the song.

E|----------------------------------------------------------------------------------|
B|----------------------------------------------------------------------------------|
G|----------------------------------------------------------------------------------|
d|--------9----------9----------9---------9------------------9---------9---------9--|
A|----5----------5------5----------5---------5-----------6---------6------6---------|
D|-5-------------------------5---------5----------5--/6-----------------------6-----|       X5

E|-----------------------------------------------------------------------------------------|
B|-----------------------------------------------------------------------------------------|
G|-----------------------------------------------------------------------------------------|
d|---------5----------5---------5---------5-----------------4---------4-----------3--------|
A|-----3----------3------3---------3---------3----------2---------2-----2-----------3------|
D|-3-------------------------3---------3---------3--\2-----------------------\1---------1--|

E|-----------------------------------------------------------------------------|
B|-----------------------------------------------------------------------------|
G|-----------------------------------------------------------------------------|
d|-3---------------------------------------------------------------------------|
A|----3------------------------------------------------------------------------|
D|-------1---------------------------------------------------------------------|

E|----------------------------------------------------------------------------------|
B|----------------------------------------------------------------------------------|
G|----------------------------------------------------------------------------------|
d|--------9----------9----------9---------9------------------9---------9---------9--|
A|----5----------5------5----------5---------5-----------6---------6------6---------|
D|-5-------------------------5---------5----------5--/6-----------------------6-----|       X3


E|-----------------------------------------------------------------------------------------|
B|-----------------------------------------------------------------------------------------|
G|-----------------------------------------------------------------------------------------|
d|---------5----------5---------5---------5-----------------4---------4-----------3--------|
A|-----3----------3------3---------3---------3----------2---------2-----2-----------3------|
D|-3-------------------------3---------3---------3--\2-----------------------\1---------1--|

E|-----------------------------------------------------------------------------|
B|-----------------------------------------------------------------------------|
G|-----------------------------------------------------------------------------|
d|-3---------------------------------------------------------------------------|
A|----3------------------------------------------------------------------------|
D|-------1---------------------------------------------------------------------|

E|----------------------------------------------------------------------------------|
B|----------------------------------------------------------------------------------|
G|----------------------------------------------------------------------------------|
d|--------9----------9----------9---------9------------------9---------9---------9--|
A|----5----------5------5----------5---------5-----------6---------6------6---------|
D|-5-------------------------5---------5----------5--/6-----------------------6-----|        X2

E|-----------------------------------------------------------------------------------|
B|-----------------------------------------------------------------------------------|
G|----------------9-------------------9---------------------9------------------------|
d|---------9-------------------9---------------------9-----------------9-------------|
A|-----5-------------------6---------------------5-----------------6-----------------|
D|-5-------------------6---------------------5-----------------6---------------------|

E|-----------------------------------------------------------------|
B|-----------------------------------------------------------------|
G|-----------------------------------------------------------------|
d|--9-9---8-8---9---9-9---8-8---9---9-9---8-8---9---9-9---8-8---9--|
A|--5-5---5-5---5---5-5---5-5---5---5-5---5-5---5---5-5---5-5---5--|
D|--5-5---5-5---5---5-5---5-5---5---5-5---5-5---5---5-5---5-5---5--|       X2

E|-----------------------------------------------------------------------------|
B|-----------------------------------------------------------------------------|
G|---------------------------------5----------------------------------5--------|
d|--9-9----8-8----9---8---9---5----9-9----8-8----9---8---9---5-----------------|
A|--5-5----5-5----5---5---5---5----5-5----5-5----5---5---5---5-----------------|
D|--5-5----5-5----5---5---5---5----5-5----5-5----5---5---5---5-----------------|

E|-----------------------------------------------------------------------------|
B|-----------------------------------------------------------------------------|
G|-----------------------------------------------------------------------------|
d|--9-9----8-8----9---8---9--11----5-5----5-5----4---4---4---3-----------------|
A|--6-6----6-6----6---6---6---6----3-3----3-3----2---2---2---1-----------------|
D|--6-6----6-6----6---6---6---6----3-3----3-3----2---2---2---1-----------------|

E|-----------------------------------------------------------------------------|
B|-----------------------------------------------------------------------------|
G|---------------------------------5----------------------------------5--------|
d|--9-9----8-8----9---8---9---5----9-9----8-8----9---8---9---5-----------------|
A|--5-5----5-5----5---5---5---5----5-5----5-5----5---5---5---5-----------------|
D|--5-5----5-5----5---5---5---5----5-5----5-5----5---5---5---5-----------------|

E|-----------------------------------------------------------------------------|
B|-----------------------------------------------------------------------------|
G|-----------------------------------------------------------------------------|
d|--9-9----8-8----9---8---9--11----5-5----5-5----4---4---4---3-----------------|
A|--6-6----6-6----6---6---6---6----3-3----3-3----2---2---2---1-----------------|
D|--6-6----6-6----6---6---6---6----3-3----3-3----2---2---2---1-----------------|

E|-----------------------------------------------------------------------------|
B|-----------------------------------------------------------------------------|
G|---------------------------------5----------------------------------5--------|
d|--9-9----8-8----9---8---9---5----9-9----8-8----9---8---9---5-----------------|
A|--5-5----5-5----5---5---5---5----5-5----5-5----5---5---5---5-----------------|
D|--5-5----5-5----5---5---5---5----5-5----5-5----5---5---5---5-----------------|

E|-----------------------------------------------------------------------------|
B|-----------------------------------------------------------------------------|
G|-----------------------------------------------------------------------------|
d|--9-9----8-8----9---8---9--11----5-5----5-5----4---4---4---3-----------------|
A|--6-6----6-6----6---6---6---6----3-3----3-3----2---2---2---1-----------------|
D|--6-6----6-6----6---6---6---6----3-3----3-3----2---2---2---1-----------------|

E|-----------------------------------------------------------------------------|
B|-----------------------------------------------------------------------------|
G|---------------------------------5----------------------------------5--------|
d|--9-9----8-8----9---8---9---5----9-9----8-8----9---8---9---5-----------------|
A|--5-5----5-5----5---5---5---5----5-5----5-5----5---5---5---5-----------------|
D|--5-5----5-5----5---5---5---5----5-5----5-5----5---5---5---5-----------------|

E|-----------------------------------------------------------------------------|
B|-----------------------------------------------------------------------------|
G|-----------------------------------------------------------------------------|
d|--9-9----8-8----9---8---9--11----5-5----5-5----4---4---4---3-----------------|
A|--6-6----6-6----6---6---6---6----3-3----3-3----2---2---2---1-----------------|
D|--6-6----6-6----6---6---6---6----3-3----3-3----2---2---2---1-----------------|

E|-----------------------------------------------------------------------------|
B|-----------------------------------------------------------------------------|
G|---------------------------------5----------------------------------5--------|
d|--9-9----8-8----9---8---9---5----9-9----8-8----9---8---9---5-----------------|
A|--5-5----5-5----5---5---5---5----5-5----5-5----5---5---5---5-----------------|
D|--5-5----5-5----5---5---5---5----5-5----5-5----5---5---5---5-----------------|

E|-----------------------------------------------------------------------------|
B|-----------------------------------------------------------------------------|
G|-----------------------------------------------------------------------------|
d|--9-9----8-8----9---8---9--11----5-5----5-5----4---4---4---3-----------------|
A|--6-6----6-6----6---6---6---6----3-3----3-3----2---2---2---1-----------------|
D|--6-6----6-6----6---6---6---6----3-3----3-3----2---2---2---1-----------------|

E|----------------------------------------------------------------------------------|
B|----------------------------------------------------------------------------------|
G|----------------------------------------------------------------------------------|
d|--------9----------9----------9---------9------------------9---------9---------9--|
A|----5----------5------5----------5---------5-----------6---------6------6---------|
D|-5-------------------------5---------5----------5--/6-----------------------6-----|       X3

E|-----------------------------------------------------------------------------------------|
B|-----------------------------------------------------------------------------------------|
G|-----------------------------------------------------------------------------------------|
d|---------5----------5---------5---------5-----------------4---------4-----------3--------|
A|-----3----------3------3---------3---------3----------2---------2-----2-----------3------|
D|-3-------------------------3---------3---------3--\2-----------------------\1---------1--|

E|-----------------------------------------------------------------------------|
B|-----------------------------------------------------------------------------|
G|-----------------------------------------------------------------------------|
d|-3---------------------------------------------------------------------------|
A|----3------------------------------------------------------------------------|
D|-------1---------------------------------------------------------------------|





************************************

| /   slide up
| \   slide down
| h   hammer-on
| p   pull-off
| ~   vibrato
| +   harmonic
| x   Mute note
| b   Bend
| pb  Pre-bend
| br  Bend release
| pbr Pre-bend release
| brb Bend release bend

************************************
Добавлено: 28.07.2012
Другие материалы по этой песне:

Страница создана 30.04.2012
http://primanota.ru/death-note/mellos-theme-chords.htm
Привет, Гость.
Предлагаем пройти революционный курс по гитаре.
Подарок от PrimaNota.Ru, забирай!