PrimaNota.ru - самый крупный в мире бесплатный архив песенных текстов, аккордов, табулатур и нот


Death Note - Solitude - таба, видео

Регистрация Запомнить меня
Войти через:  Facebook Google Twitter Vk Yandex Mail.ru

Death Note - Solitude - таба, видео

Печатать
Просмотров: 359
Tabbed by: satyphan
Song: Solitude
Band: Yoshihisa Hirano and Hideki Taniuchi (Death Note OST)

Tuning: Standard (All Guitars)

Guitar 1 - Clean
Guitar 2 - Clean
Guitar 3 - Distortion + Delay (on work)






Guitar 1

00:00 - 00:37
                                            x6
e|---------------------------------------------|
B|-----0---------------------------------------|
G|--------2--1------1------1-------------------|
D|--------------2------2------2----------------|
A|---------------------------------------------|
E|--2------------------------------------------|

00:37 - 00:49
                                            x2
e|---------------------------------------------|
B|--------------3----------3-------------------|
G|-----2--1-----1---1------1-------------------|
D|--0--------0--0-------0--0-------------------|
A|---------------------------------------------|
E|---------------------------------------------|


e|---------------------------------------------|
B|-----------------0---0-----------------------|
G|---------1---2----------1--------------------|
D|--2--4---------------------------------------|
A|---------------------------------------------|
E|---------------------------------------------|


e|---------------------------------------------|
B|-----------------0---3---3--5----------------|
G|---------1---2-------------------------------|
D|--2--4---------------------------------------|
A|---------------------------------------------|
E|---------------------------------------------|


Guitar 2

00:50 - 01:08
                                            x3
e|---------------------------------------------|
B|---------------------------------------------|
G|--6---6--7---6---6--9---9---7---7------------|
D|---------------------------------------------|
A|---------------------------------------------|
E|---------------------------------------------|

01:08 - 01:14

e|---------------------------------------------|
B|----------------------------7---9------------|
G|--6---6--7---6---6--9---9--------------------|
D|---------------------------------------------|
A|---------------------------------------------|
E|---------------------------------------------|

01:15 - 01:27
                                            2x
e|---------------------------------------------|
B|--10---10---9---9---5---5---5---5------------|
G|---------------------------------------------|
D|---------------------------------------------|
A|---------------------------------------------|
E|---------------------------------------------|

01:27 - 1:33

e|---------------------------------------------|
B|--7---7---7---7---9---9---9---9--------------|
G|---------------------------------------------|
D|---------------------------------------------|
A|---------------------------------------------|
E|---------------------------------------------|








| /  slide up
| \  slide down
| h  hammer-on
| p  pull-off
| ~  vibrato
| +  harmonic
| x  Mute note
===============================================================================
Добавлено: 07.06.2012
Другие материалы по этой песне:
  • Аккорды и текст

Страница создана 07.06.2012
http://primanota.ru/death-note/solitude-chords.htm
Привет, Гость.
Предлагаем пройти революционный курс по гитаре.
Подарок от PrimaNota.Ru, забирай!