PrimaNota.ru - самый крупный в мире бесплатный архив песенных текстов, аккордов, табулатур и нот


Death Note - Death Image - таба, видео

Регистрация Запомнить меня
Войти через:  Facebook Google Twitter Vk Yandex Mail.ru

Death Note - Death Image - таба, видео

Печатать
Просмотров: 248
Theme from the anime Death Note
Authors: Hideki Taniuchi & Yoshihisa Hirano

part 1
e|--------------------------------3-------------------------------|
b|5---------------3---------------5---------------1---------------|
g|5---------------4---------------5---------------2---------------|
d|3---------------3-------------------------------2---------------|
A|----------------------------------------------------------------|
E|----------------------------------------------------------------|

part 2
e|--------3---5-------------------3-------3---------------0-------|
b|5---------------3-------5---6---5-----------5---1-----------1---|
g|5---------------4---------------5---------------2---------------|
d|3---------------3-------------------------------2---------------|
A(3)-------------(5)-------------(3)-------------(0)--------------|
E|----------------------------------------------------------------|

so beautiful, i love this song
feel free to correct if it's wrong
Добавлено: 03.09.2013
Другие материалы по этой песне:
  • Аккорды и текст

Страница создана 03.09.2013
http://primanota.ru/death-note/death-image-chords.htm
Привет, Гость.
Предлагаем пройти революционный курс по гитаре.
Подарок от PrimaNota.Ru, забирай!