PrimaNota.ru - самый крупный в мире бесплатный архив песенных текстов, аккордов, табулатур и нот


David Gilmour - You Know Im Right - текст песни, таба, видео

Регистрация Запомнить меня
Войти через:  Facebook Google Twitter Vk Yandex Mail.ru

David Gilmour - You Know Im Right - текст песни, таба, видео

Печатать
Просмотров: 183
Intro:
| Em       D        Em       D 
E--------0-------2-|-------0-------2-|
B------0-------3---|-----0-------3---|
G----0-------2-----|---0-------2-----| (continue similar)
D--2-------0-------|-2-------0-------|
A------------------|-----------------|
E------------------|-----------------|

|Em        D          |Em         D        |Em    D   |Em  D   | 
 1.You can scream and  shout with all your  might

|Em    D      |Em        D       |Em     D      |Em    D     |
  Dig in your  heels and hold on  tight

|Em      D       |Em     D      |Em(hold)  |        | 
  Either you are  wrong or I am  right

First time repeat for verse 2

Second time:

|D    E           |                           |D    E           |
      3.We really  seem to have a problem here        But is it 

|              |C     D           |                             |
 you or me?              Whatever  I have going through my mind

|C    D           |                  |D     E             |
       You always  have to disagree           It's just a 

|                   |D     E                        |
 matter of opinions         It's not a  simple fact 

|C    D              |                           |
       Why don't you  try to see the other side   

|C    D                |            |
       Don't turn your  back

 (inst. interlude - listen to it to get the feel and I hope you'll
  be able to understand what I've got here) 
|C/F   G/F     |C/F   G/F     |C/F   G/F     |C/F   G/F     |
  /   / /        /   / /        /   / /        /   / /

|D/E   Em7     |D/E   Em7     |D/E   Em7     |Em   D/E   Em7  |
  /     /        /     /        /     /        /    /     / 

Repeat this once, then back to start for verse 4 and 5.  After verse 
5, guitar solo over the above backing:

E---B-----------|----15-B----R------|-----------|---------------|
B-15(17)--------|-----15(17)----15--|15---------|12-12----------|
G---------------|-----------------14|--------14-|---------------|
D---------------|-------------------|-----------|-------------7-|
A---------------|-------------------|-----------|---------------|
E---------------|-------------------|-----------|---------------|

E------------|-----------------|------------|-------------|
B------------|-----------------|------------|-------------|
G------------|------------B----|------------|---B---------|
D-7----------|----7-7----7(9)--|------------|5-7(9)-------|
A------------|--7--------------|7--------7--|-------------|
E------------|-----------------|------------|-------------|

E---B------B---R----------|--B------B---R----------|
B-15(17)-15(17)-15--------|15(17)-15(17)-15--------|
G-------------------------|---------------------12-|
D-------------------------|------------------------|
A-------------------------|------------------------|
E-------------------------|------------------------|

E---B---R--B--------15--B---|-----------------|---------------|
B-15(17)-15(17)-15----15(17)|---13-15----15-13|12---12--------|
G---------------------------|-----------------|---------------|
D---------------------------|-----------------|---------------|
A---------------------------|-----------------|---------------|
E---------------------------|-----------------|---------------|

E-----------------|---------12--P---------|----------------B----|
B---------B----12-|15-B-------15-12-15----|12---15(17)---15-(17)|
G-------14(16)----|-14(16)----------------|---------------------|
D-----------------|-----------------------|---------------------|
A-----------------|-----------------------|---------------------|
E-----------------|-----------------------|---------------------|

E-----------|-----------------|------------------------|--------|
B--------15-|15---12-15\---12-|12----------------------|--------|
G-----------|-----------------|------H--14-14-14-(16)14|----12--|
D-----------|-----------------|----1214----------------|14------|
A-----------|-----------------|------------------------|--------|
E-----------|-----------------|------------------------|--------|

E----------------|--------------|--------------|----------------|
B----------------|-5------5-----|5------5--5---|5--5--5--5------|
G--B--R-P--------|-----4------4-|----4-------4-|----------------|
D-7(9)-7-5-------|--------------|--------------|----------------|
A----------7-----|--------------|--------------|----------------|
E----------------|--------------|--------------|----------------|

2.You speak the lines you've overheard
  The ring of truth in every word
  You know you're right but that's absurd


4.Now we survey this silent battleground
  Recriminations all around
  And still no compromise is found

5.Now we really seem to have a problem
  And it won't just disappear
  And all the friends we thought we could rely on
  Just want to whisper in my ear
  It's just a matter of opinions
  You know you keep both in sight
  Why should you bother with the other side
Добавлено: 08.07.2012
Другие материалы по этой песне:
  • Аккорды и текст

Страница создана 02.06.2012
http://primanota.ru/david-gilmour/you-know-im-right-chords.htm
Привет, Гость.
Предлагаем пройти революционный курс по гитаре.
Подарок от PrimaNota.Ru, забирай!