PrimaNota.ru - самый крупный в мире бесплатный архив песенных текстов, аккордов, табулатур и нот


David Gilmour - Faces Of Stone - аккорды и текст, таба, видео

Регистрация Запомнить меня
Войти через:  Facebook Google Twitter Vk Yandex Mail.ru

David Gilmour - Faces Of Stone - аккорды и текст, таба, видео

Печатать
Просмотров: 623
Уроки эстрадного вокала в Санкт-Петербурге
Авторы музыки: David Gilmour
Авторы текста: David Gilmour
Faces Of Stone
David Gilmour
---------------------------------------------------------------------------------------------------------------
                                          Artist - David Gilmour
                                         ************************
                                          Song - Faces Of Stone
                                         ***********************
                                      Album - Rattle That Lock (2015)   
                                     *********************************
                                            Tabbed By - Ayreon77
                                           **********************
---------------------------------------------------------------------------------------------------------------
Tuning = Standard


GUITAR 1
The Picking Pattern
********************
  Dm                                                                        
e|---1-1-1-----1-1-1-|---1-1-1-----1-1-1-|---1-1-1-----1-1-1-|---1-1-1-----|
B|---3-3-3--h--3-3-3-|---3-3-3--h--3-3-3-|---3-3-3--h--3-3-3-|---3-3-3-----|
G|---2-2-2-0-2-2-2-2-|---2-2-2-0-2-2-2-2-|---2-2-2-0-2-2-2-2-|---2-2-2-2-0-|
D|-0-0-0-0-----0-0-0-|-0-0-0-0-----0-0-0-|-0-0-0-0-----0-0-0-|-0-0-0-0-----|
A|-------------------|-------------------|-------------------|-------------|
E|-------------------|-------------------|-------------------|-------------|

VERSE 1 - comes in here                   A
e|---1-1-1-----1-1-1-|---1-1-1-----1-1-1-|---------------------|---------------------|
B|---3-3-3--h--3-3-3-|---3-3-3--h--3-3-3-|---2-2-2-2-----2-2-2-|---2-2-2-2-----2-2-2-|
G|---2-2-2-0-2-2-2-2-|---2-2-2-0-2-2-2-2-|---2-2-2-2--h--2-2-2-|---2-2-2-2--h--2-2-2-|
D|-0-0-0-0-----0-0-0-|-0-0-0-0-----0-0-0-|---2-2-2-2-0-2-2-2-2-|---2-2-2-2-0-2-2-2-2-|
A|-------------------|-------------------|-0-0-0-0-0-----0-0-0-|-0-0-0-0-0-----0-0-0-|
E|-------------------|-------------------|---------------------|---------------------|

  Gm                                      Dm
e|-------------------|-------------------|---1-1-1-----1-1-1-|---1-1-1-----1-1-1-|
B|---3-3-3-3-----3-3-|---3-3-3-3-----3-3-|---3-3-3--h--3-3-3-|---3-3-3--h--3-3-3-|
G|---3-3-3-3--h--3-3-|---3-3-3-3--h--3-3-|---2-2-2-0-2-2-2-2-|---2-2-2-0-2-2-2-2-|
D|---5-5-5-5-3-5-5-5-|---5-5-5-5-3-5-5-5-|-0-0-0-0-----0-0-0-|-0-0-0-0-----0-0-0-|Repeat
A|---5-5-5-5-----5-5-|---5-5-5-5-----5-5-|-------------------|-------------------|  When Necasary
E|-3-----------------|-3-----------------|-------------------|-------------------|


--------------------------------
VERSE 1
********
         Dm                          A
Faces of stone that watched from the dark
       Gm                                         Dm
As the wind swirled around you took my arm in the park
       Dm                       A
Images framed, hung high in the trees
        Gm                                                       Dm
And you talked of your youth but the years had turned dry as the leaves


--------------------------------
PIANO
******
Dm Bb C A
Bb Gm Dm A


--------------------------------
VERSE 2
********
               Dm                       A
Your lover was gone, his replacement to hand
    Gm                                          Dm
And just what the difference was, you could not understand
             Dm                              A
In darkening grey we walked back through the streets
         Gm                                                  Dm
Then you talked all night long of your childhood home by the sea


--------------------------------
02:40
SOLO 1 - Dm Bb C A    Bb Gm Dm A   Dm
*****                                                                              rake      b
e|---b--10~~~-|---p---------|--br----------|------------------|-----------------|-----10-12-12-12-|---b-----b-|
B|-13---------|-13-10-13~~~-|-13---------b-|--rb--------------|--------rbp------|---10------------|--13-14-13-|
G|------------|-------------|-------12--12-|-12--10--12-------|-10-12-12--10-12-|-10--------------|-x---------|
D|------------|-------------|--------------|------------12-12-|-----------------|-----------------|-----------|
A|------------|-------------|--------------|------------------|-----------------|-----------------|-----------|
E|------------|-------------|--------------|------------------|-----------------|-----------------|-----------|


--------------------------------
CHORUS
*******
Bb                       Ab
    And I, my disguise a mask chosen by you
Bb
    Believed every word I heard
   Ab                                   Gm
At least I think that's what I tried to do


VERSE 3
********
              Dm                  A
We sat on the roof, the night overflowed
Gm                                             Dm
No more was said but I learned all I needed to know
               Dm                         A
Your Hollywood smile shone a light on the past
    Gm                                               Dm
But it was the future that you held so tight to your heart


--------------------------------
04:10
SOLO 2 - Dm Bb C A    Bb Gm Dm A   Dm              
             br                                                                           b          s
e|-------10-12--10--------|--10----s-------|--------------|-----------b-------|-------10-12--12-13-13\15~~~-|
B|---h-------------10/\/\-|-10---13\-----s-|-----br-------|-------10-13----14-|---h-------------------------|
G|-10-12------------------|----------9~~~\-|-7-9-9----s---|---s---------------|-10-12-----------------------|
D|------------------------|----------------|--------10\12-|-10\12-------------|-----------------------------|
A|------------------------|----------------|--------------|-------------------|-----------------------------|
E|------------------------|----------------|--------------|-------------------|-----------------------------|

        p                                 p           p        s  
e|-13-12-10-10-------|--------b-|-10-12-12-10-12-13-13-12~~-13-\15-|-13-15-17~~-17~~-22~~-22~~-22~~---22-22-22-|
B|-------------13~~~-|-10-10-13-|----------------------------------|-------------------------------------------|
G|-------------------|----------|----------------------------------|-------------------------------------------|
D|-------------------|----------|----------------------------------|-------------------------------------------|
A|-------------------|----------|----------------------------------|-------------------------------------------|
E|-------------------|----------|----------------------------------|-------------------------------------------|

    b   rb             b                              rbp      s  05:09                     Pinch
e|-20--20--20-|-17-20-20-|-17-15---------------13~~~-12--10-12-\-|--------------------|----Harmonics--|
B|------------|----------|-------18--17-15-13--------------------|--h-----------------|-----*-*-*-*-s-|
G|------------|----------|---------------------------------------|-5-7--5--rbp--------|--s--5-7-7-5-\-|
D|------------|----------|---------------------------------------|--------5---3-5-3---|-5\7-----------|
A|------------|----------|---------------------------------------|------------------3-|---------------|
E|------------|----------|---------------------------------------|--------------------|---------------|

           Fade Out...................................
e|-----------|---------------------|-----------------|
B|--------s--|-----b----b----------|-b---------------|
G|--s--5-5\6-|-7-9-9-9--5-5---p----|-4-2-0-2-0--p----|
D|-5\7-------|---------------7-5-7-|-----------3-0-3-|
A|-----------|---------------------|-----------------|
E|-----------|---------------------|-----------------|


ENJOY..........
Добавлено: 05.03.2016
Другие материалы по этой песне:
  • Аккорды и текст

Страница создана 05.03.2016
http://primanota.ru/david-gilmour/faces-of-stone-chords.htm
Привет, Гость.
Предлагаем пройти революционный курс по гитаре.
Подарок от PrimaNota.Ru, забирай!