PrimaNota.ru - самый крупный в мире бесплатный архив песенных текстов, аккордов, табулатур и нот


David Gilmour - Cruise - текст песни, таба, видео

Регистрация Запомнить меня
Войти через:  Facebook Google Twitter Vk Yandex Mail.ru

David Gilmour - Cruise - текст песни, таба, видео

Печатать
Просмотров: 413
Уроки эстрадного вокала в Санкт-Петербурге
Авторы музыки: David Gilmour
Авторы текста: David Gilmour
Intro/Play over verse:
E -----------------3--5--5--3--3--|--8/10/8--7-------------------------------|
B --1-----1--3--5-----------------|-------------10--8-10--10--8--8--5-----3--|
G -----0--------------------------|------------------------------------5-----|
D --------------------------------|------------------------------------------|
A --------------------------------|------------------------------------------|
E --------------------------------|------------------------------------------|


C      G          F         C
Cruise    you are making me sing

Am           G        F          C
Now you have taken me under your wing

C      G         F               C
Cruise   we both know you're the best

Am           G               F       C
how can they say you're like all the rest?

Fill
E --------------------------------|
B --10--10--8/6--5--5--5--8-------|
G --------------------------------|
D --------------------------------|
A --------------------------------|
E --------------------------------|



C       G              F            C
Cruise      we're both traveling so far

Am          G             F        C
burning our flares like a shooting star

C              G              F            C
Cruise, I feel sure that your song will be sung

         Am          G       F    C
and will ring in the ears of everyone


Chorus:

Am         G         F          C
Saving our children, saving our land

Dm            C              G
protecting us from things we can't understand

Am        G     F          C
power and glory just isn't right

Dm            C              G
I'm sure that you'll help us to see the light

        Am            G       C            F
and the love that you radiate will keep us warm

               C           G
and help us to weather the storm




C      G           F        C
Cruise    you have taken me in

    Am             G       F        C
and just when I've got you under my skin

C           G          F            C
you start ignoring the fears I have felt

      Am               G           F             C
cause you know you can always make my poor heart melt

Fill
E --------------------------------|
B --10--10--8/6--5--5--5--8-------|
G --------------------------------|
D --------------------------------|
A --------------------------------|
E --------------------------------|




C            G             F      C
Please don't take what I'm saying amiss

   Am       G         F            C       
or misunderstand at a time such as this

C               G                    F         C
Because if such close friends should ever fall out

Am               G             F        C
what would there be left worth fighting about?

Am        G     F          C
Power and glory just isn't right

Dm            C                G
I'm sure that you'll help them to see the light

(humming)  Am  G  F  C  Dm  C  G 

     Am           G              F            C
Will you save our children, will you save our land?

       Dm              C                      G
...and protect us from all the things that we can't understand?

(humming)  Am  G  F  C  Dm  C  G 


Am        G     F          C
Power and glory just isn't wrong

Dm          C            G
who will we turn to when your heart brave falls?



Добавлено: 22.05.2012
Другие материалы по этой песне:
  • Аккорды и текст

Страница создана 27.04.2012
http://primanota.ru/david-gilmour/cruise-chords.htm
Привет, Гость.
Предлагаем пройти революционный курс по гитаре.
Подарок от PrimaNota.Ru, забирай!