PrimaNota.ru - самый крупный в мире бесплатный архив песенных текстов, аккордов, табулатур и нот


Daniel Licht - Photos - таба, видео

Регистрация Запомнить меня
Войти через:  Facebook Google Twitter Vk Yandex Mail.ru

Daniel Licht - Photos - таба, видео

Печатать
Просмотров: 620
http://www.danlicht.com/

This is the song Photos, from Dexter.. This is my first tab, so I guess it's not
100% correct.. :P 
Enjoy! ;)

D|---------------------------------------------|
A|---------------------------------------------|
F|---------------------------------------------|
C|------15-14---------10-9---------10----------|
G|---12-------------7------------5-------------|
C|12--------------7------------5---------------|

D|---------------------------------------------|
A|---------------------------------------------|
F|---------------------------------------------|
C|--------7---------9-----------15-14-14h15----|
G|------3---3-----5----------12----------------|
C|0-2-3---------5---------12-------------------|

D|---------------------------------------------|
A|---------------------------------------------|
F|---------------------------------------------|
C|------15-------------10----------10---9------|
G|---12----12--------7----7------5----5--------|
C|12---------------7-----------5---------------|

D|---------------------------------------------|
A|---------------------------------------------|
F|---------------------------------------------|
C|--------7---------9-------------15-14-14h15--|
G|------3---3-----5---5--------12--------------|
C|0-2-3---------5-----------12-----------------|

D|---------------------------------------------------------------------|
A|---------------------------------------------------------------------|
F|---------------------------------------------------------------------|
C|-------7--------9--------7--------9-------7--------9--------11-9-11--|
G|-----3---3----5--------3---3----5-------3---3----5---5----7----------|
C|-2-3--------5--------3--------5-------3--------5--------7------------|

D|---------------------------------------------|
A|---------------------------------------------|
F|---------------------------------------------|
C|------15-14---------10------------10---9-----|
G|---12-------------7----7--------5----5-------|
C|12--------------7-------------5--------------|

D|---------------------------------------------|
A|---------------------------------------------|
F|---------------------------------------------|
C|--------7---------9-------------15-14-14h15--|
G|------3---3-----5---5--------12--------------|
C|0-2-3---------5-----------12-----------------|
Добавлено: 24.04.2012
Другие материалы по этой песне:

Страница создана 19.03.2012
http://primanota.ru/daniel-licht/photos-chords.htm
Привет, Гость.
Предлагаем пройти революционный курс по гитаре.
Подарок от PrimaNota.Ru, забирай!