PrimaNota.ru - самый крупный в мире бесплатный архив песенных текстов, аккордов, табулатур и нот


Daniel Licht - Honor For All - таба, видео

Регистрация Запомнить меня
Войти через:  Facebook Google Twitter Vk Yandex Mail.ru

Daniel Licht - Honor For All - таба, видео

Печатать
Просмотров: 784
-------------------------------------------------------------------------------
                             Honor For All - Daniel and Jon Licht
-------------------------------------------------------------------------------
Tabbed by: Decoteau DeGrauw
E-mail: Decoteau.d@gmail.com

Tuning: Standard

I really wanted to learn this song for a long while, and the only thing I could find was a terrible electric 
guitar tutorial. I couldn't even find any tabs or sheet music! 
Finally I started teaching myself how to play it, and this is what I've got so far! 
Feel free to copy this or whatever you like, I don't care if I get credit 
I only care that others who want to play the song can.

This is the piano part, that repeats until about halfway through the song.
e|-----------------------------------------------------------------------------------|
B|-----------------------------------------------------------------------------------|
G|---------1-----1-----------1-----1-------------------------------------------------|
D|-------3-----3-----3-----3-----3-----3-----3-5-6--5-3-2-3-5--3-5-6--5-6-8--6-8-10--|
A|-----3-----3-----3-----3-----3-----3-----3-----------------------------------------|
E|-----------------------------------------------------------------------------------|

This is the Violin, which kicks in after two repetitions of the piano.^^^^^
e|---------------------------------------------------------------------------|
B|---------------------------------------------------------------------------|
G|-------1-0-----0---1-1---1-------------------------------------------------|
D|-----3-----1---------------1-------1-3-------------------------------------|
A|-------------4---4-----3-----3-3-4-----------------------------------------|
E|---------------------------------------------------------------------------|

This is all I have so far.

************************************

| /   slide up
| \   slide down
| h   hammer-on
| p   pull-off
| ~   vibrato
| +   harmonic
| x   Mute note
| b   Bend
| pb  Pre-bend
| br  Bend release
| pbr Pre-bend release
| brb Bend release bend

************************************
Добавлено: 03.08.2015
Другие материалы по этой песне:
  • Аккорды и текст

Страница создана 03.08.2015
http://primanota.ru/daniel-licht/honor-for-all-chords.htm
Привет, Гость.
Предлагаем пройти революционный курс по гитаре.
Подарок от PrimaNota.Ru, забирай!