PrimaNota.ru - самый крупный в мире бесплатный архив песенных текстов, аккордов, табулатур и нот


Daniel Licht - Astors Birthady Party - таба, видео

Регистрация Запомнить меня
Войти через:  Facebook Google Twitter Vk Yandex Mail.ru

Daniel Licht - Astors Birthady Party - таба, видео

Печатать
Просмотров: 518
It's just the first part for now. I'll probably upload the rest at some point.
I think for a really good sound it's probably best to play it with two guitars, 
one doing the tab and the other slowly breaking the chords. I noticed most tabs 
for this song do it in Gm though I found it no better than using plain Em. Feel 
free to just add a capo if you find it more appealing.

also, take notice that it's best (And easiest) to do a bridge for each segment:
7, then 5, then 2 (the ending is open).

e|----7----7----7-------|----5----5----5-------|
B|------8----8-----8----|------5----5-----5----|
G|----9---------7-------|----6---------5-------|
D|----------------------|----------------------|
A|---------9---10-------|----0-----------------|
E|----0-----------------|---------7----8-------|

Ch:  Em ------- G            A ------- Am 


|----3----3----2-----2---|--0-(0)(0)--(0)(0)(0)-|
|------5----5-----4--4-4-|--0-(0)(0)--(0)(0)(0)-|
|----4----4----4---------|--0-(0)(0)--(0)(0)(0)-|  to beginning
|------------------------|--2-(2)(2)--(2)(2)(2)-|
|----2---------2---------|--2-(2)(2)---0--1--2--|
|------------------------|--0--2--3-------------|

    Em ------ B(7) -----   Em/(bass: e-f#-g-a-a#-b)


Good luck
Добавлено: 06.10.2013
Другие материалы по этой песне:
  • Аккорды и текст

Страница создана 06.10.2013
http://primanota.ru/daniel-licht/astors-birthady-party-chords.htm
Привет, Гость.
Предлагаем пройти революционный курс по гитаре.
Подарок от PrimaNota.Ru, забирай!