PrimaNota.ru - самый крупный в мире бесплатный архив песенных текстов, аккордов, табулатур и нот


Dalida - Bang Bang - аккорды и текст, видео

Регистрация Запомнить меня
Войти через:  Facebook Google Twitter Vk Yandex Mail.ru

Dalida - Bang Bang - аккорды и текст, видео

Печатать
Просмотров: 707
Уроки эстрадного вокала в Санкт-Петербурге
Bang Bang
Dalida
  Am                  Dm             E                  Am

E------------------------------------0------------------------|
A--0---------------------------------2------------------0-----|
D--2------------------0--------------2------------------2-----|
G--2----2-------------2--2-----------1--1---------------2-----|
B--1-------1----3-2---3----3------3--0----0-----3-1--0--1-----|
e--0---------0--------1------1-0-----0------1-0---------0-----|


Another guitar (Optional ...) This goes everytime right after the previous sequence
E----------------------|
A----------------------|
D----------------------|
G---2------------------|
B-----1----------------|
e---------3---2--------|


Am 
Mi ricordo quando noi
Am
Eravamo due bambini
G
E puntavamo le pistole
E
Dai cavalli a dondolo


     Am 
Bang bang - Io sparo a te
     Am
Bang bang - Tu spari a me
     G
Bang bang - E vincerà
     E
Bang bang - Chi al cuore colpirà.



  Am                  Dm             E                  Am

E------------------------------------0------------------------|
A--0---------------------------------2------------------0-----|
D--2------------------0--------------2------------------2-----|
G--2----2-------------2--2-----------1--1---------------2-----|
B--1-------1----3-2---3----3------3--0----0-----3-1--0--1-----|
e--0---------0--------1------1-0-----0------1-0---------0-----|

Am
Sono passati gli anni e poi
Am
Noi ci siamo innamorati
G
Correvamo per i prati
E
Tu scherzavi insieme a me

     Am
Bang bang -Per ridere
     Am
Bang bang - Sparavi a me
     G
Bang bang - E vincerà
     E
Bang bang - Chi al cuore colpirà.


  Am                  Dm             E                  Am

E------------------------------------0------------------------|
A--0---------------------------------2------------------0-----|
D--2------------------0--------------2------------------2-----|
G--2----2-------------2--2-----------1--1---------------2-----|
B--1-------1----3-2---3----3------3--0----0-----3-1--0--1-----|
e--0---------0--------1------1-0-----0------1-0---------0-----|

F
Certo non scherzavi tu
Em
Quando mi sparavi al cuor
Dm
Nel mirar non sbagliavi mai
C
Prove a negare se tu vuoi .

Am
Ora non mi ami più
Am
Ed ho sentito un colpo al cuore
G
Quando mi hai detto che
E
Non vuoi stare più con me

     Am
Bang bang - E resto cui
     Am
Bang bang - A piangere
     G
Bang bang - Hai vinto tu
     E
Bang bang Il cuore non l'ho più.


  Am                  Dm             E                  Am

E------------------------------------0------------------------|
A--0---------------------------------2------------------0-----|
D--2------------------0--------------2------------------2-----|
G--2----2-------------2--2-----------1--1---------------2-----|
B--1-------1----3-2---3----3------3--0----0-----3-1--0--1-----|
e--0---------0--------1------1-0-----0------1-0---------0-----|


Am
Quando vedo intorno a me
Am
Che i bambini giocano
G
E puoi fingon di sparar
E
Come mi si stringe il cuore

     Am
Bang bang - Rivedo te
     Am
Bang bang - Che spari a me
     G
Bang bang - Quel suono sai
     E                            Am
Bang bang - Non lo scorderò mai 


  Am                  Dm             E                  Am

E------------------------------------0------------------------|
A--0---------------------------------2------------------0-----|
D--2------------------0--------------2------------------2-----|
G--2----2-------------2--2-----------1--1---------------2-----|
B--1-------1----3-2---3----3------3--0----0-----3-1--0--1-----|
e--0---------0--------1------1-0-----0------1-0---------0-----|
   
                                                 Am
E-------------------------------------------------------------|
A------------------------------------------------0------------|
D-------------------------------------------------2-----------|
G--2-----------------------------------------------2----------|
B----0------1--3--5--7--9--10--12--13-------10------1---------|
e----------------------------------------------------0--------|
Добавлено: 13.10.2013
Другие материалы по этой песне:
  • Аккорды и текст

Страница создана 19.08.2013
http://primanota.ru/dalida/bang-bang-chords.htm
Привет, Гость.
Предлагаем пройти революционный курс по гитаре.
Подарок от PrimaNota.Ru, забирай!