PrimaNota.ru - самый крупный в мире бесплатный архив песенных текстов, аккордов, табулатур и нот


Cure - I Dig You - текст песни, бас-таба, видео

Регистрация Запомнить меня
Войти через:  Facebook Google Twitter Vk Yandex Mail.ru

Cure - I Dig You - текст песни, бас-таба, видео

Печатать
Просмотров: 196
I Dig You
THE CURE

From the album: Seventeen Seconds - Deluxe Edition

Standard tuning: E A D G

Bass starts at 0:07

G|-----------------------------|
D|-----------------------------|
A|---567777777777777-----------|	 x 10
E|-7---------------------------|

G|-------------------------------------------|
D|-----7777777755555-------------------------|
A|---56--------------657777777777777---------|	    x2
E|-7----------------7------------------------|

G|-----------------------------|
D|-----------------------------|
A|-5555555555555555------------|
E|-----------------------------|

G|-----------------------------|
D|-----------------------------|
A|-----------------------------|	
E|-558-558-558-5585------------|

G|-----------------------------|
D|-----------------------------|
A|---567777777777777-----------|      x2
E|-7---------------------------|

G|-----------------------------|
D|-----------------------------|
A|---567-----------------------|      
E|-7---------------------------|

-Pause-

G|-----------------------------|
D|-----------------------------|
A|---567777777777777-----------|      x8
E|-7---------------------------|

G|-------------------------------------------|
D|-----7777777755555-------------------------|
A|---56--------------657777777777777---------|	    x2
E|-7----------------7------------------------|

G|-----------------------------|
D|-----------------------------|
A|--5555555555555555-----------|
E|-----------------------------|

G|-----------------------------|
D|-----------------------------|
A|-----------------------------|	
E|558-558-558-5585-------------|

G|-----------------------------|
D|-----------------------------|
A|---567777777777777-----------|      x2
E|-7---------------------------|

G|-----------------------------|
D|-----------------------------|
A|---567-----------------------|      
E|-7---------------------------|

-Pause-

G|-----------------------------|
D|-----------------------------|
A|---567777777777777-----------|      x8
E|-7---------------------------|

G|-------------------------------------------|
D|-----7777777755555-------------------------|
A|---56--------------657777777777777---------|	    x2
E|-7----------------7------------------------|

G|-----------------------------|
D|-----------------------------|
A|--5555555555555555-----------|
E|-----------------------------|

G|-----------------------------|
D|-----------------------------|
A|-----------------------------|	
E|558-558-558-5585-------------|

G|-----------------------------|
D|-----------------------------|
A|---567777777777777-----------|      x2
E|-7---------------------------|

G|-----------------------------|
D|-----------------------------|
A|---567-----------------------|      
E|-7---------------------------|
Добавлено: 17.03.2012
Другие материалы по этой песне:
  • Аккорды и текст

Страница создана 24.02.2012
http://primanota.ru/cure/i-dig-you-chords.htm
Привет, Гость.
Предлагаем пройти революционный курс по гитаре.
Подарок от PrimaNota.Ru, забирай!