PrimaNota.ru - самый крупный в мире бесплатный архив песенных текстов, аккордов, табулатур и нот


Cure - Im Cold - текст песни, таба, бас-таба, видео

Регистрация Запомнить меня
Войти через:  Facebook Google Twitter Vk Yandex Mail.ru

Cure - Im Cold - текст песни, таба, бас-таба, видео

Печатать
Просмотров: 248
Авторы музыки: Robert Smith, Laurence Tolhurst, Michael Dempsey
Авторы текста: Robert Smith, Laurence Tolhurst, Michael Dempsey
Band: The Cure
Song: I'm Cold

tabbed by jam9383@yahoo.com
my pride and joy, ill add chords later


Legend

^ Artificial Harmonic
b bend
r release
/ slide up neck, \ slide down neck

Intro Solo

e--12------------------------------------------------9--9p8-----------|
B--12----10-12-10br-7-------7h8----5h7h8-10-10----------------10------|
G--14b----------------------------------------------------------------|
D---------------------------------------------------------------------|
A---------------------------------------------------------------------|
E---------------------------------------------------------------------|

e------5-7---7b-r7-5-------------------------------5-5-6-7b-r7--------|
B--5-7-----7----------9h10p9--5-7--------------5-7--------------------|
G----------------------------------4-6--------------------------------|
D---------------------------------------------------------------------|
A---------------------------------------------------------------------|
E---------------------------------------------------------------------|

e----------4-4-5-5-7-7-9-9-10-10-12-----------------------------------|
B--7-5-7-5------------------------------------------------------------|
G---------------------------------------------------------------------|
D---------------------------------------------------------------------|
A---------------------------------------------------------------------|
E---------------------------------------------------------------------|

Verse Guitar Fills

e---9--9--9^----------|-----------14-----14-----14--------------------|
B-------------10b-----|-------17b----17b----17b----17-14~-------------|
G---------------------|-----------------------------------------------|
D---------------------|-----------------------------------------------|
A---------------------|-----------------------------------------------|
E---------------------|-----------------------------------------------|

e---9-p7p5--7-/-------|-----8-------------------|---------------------|
B---------------------|-------6-7--9-10-/-------|---------------------|
G---------------------|-------------------------|---------------------|
D---------------------|-------------------------|---11/---------------|
A---------------------|-------------------------|---------------------|
E---------------------|-------------------------|---------------------|

Solo

e---------------------------------------------------------------------|
B--7-10-7-10b-12--9h10p9p7----10h12-----------------------------------|
G-----------------------------------9-11------------------------------|
D---------------------------------------------------------------------|
A---------------------------------------------------------------------|
E---------------------------------------------------------------------|

e--0-0-0-0-0-0-0-0-0-0--------------------4-5-5-7-8-9-11-12---9-9b----|
B--5-5-5-7-7-7-9-9-9-10--9h10-7/5-----5-7-----------------------------|
G---------------------------------------------------------------------|
D---------------------------------------------------------------------|
A---------------------------------------------------------------------|
E---------------------------------------------------------------------|

e-9-9b-9-9b-9-9b-9p8p7-5-4b-4-4b-4-4b-4-5b----------------------------|
B---------------------------------------------------------------------|
G---------------------------------------------------------------------|
D---------------------------------------------------------------------|
A---------------------------------------------------------------------|
E---------------------------------------------------------------------|

2nd Verse Guitar Fills

e----5h7p5h7p5h7p5-----|--------------------|--19\--/14--|--18b-17-15-|
B----------------------|--------------------|------------|------------|
G----------------------|--------------------|------------|------------|
D----------------------|--------------------|------------|------------|
A----------------------|-----3h4p3h4p3h4p3--|------------|------------|
E----------------------|--------------------|------------|------------|

any comments/corrections contact me, please rate
Добавлено: 07.03.2012
Другие материалы по этой песне:

Страница создана 07.03.2012
http://primanota.ru/cure/im-cold-chords.htm
Привет, Гость.
Предлагаем пройти революционный курс по гитаре.
Подарок от PrimaNota.Ru, забирай!