PrimaNota.ru - самый крупный в мире бесплатный архив песенных текстов, аккордов, табулатур и нот


Cure - Jumpin Someone Elses Train - бас-таба, видео

Регистрация Запомнить меня
Войти через:  Facebook Google Twitter Vk Yandex Mail.ru

Cure - Jumpin Someone Elses Train - бас-таба, видео

Печатать
Просмотров: 138
Уроки эстрадного вокала в Санкт-Петербурге
SONG-Jumpin Someone Else's Train
BAND- THE CURE
TABED BY- sPecialK


(verse 1

(Play this 3x)       (Add this on the 3rd time)
G---------------|------------------------------------------------------------|
D---------------|------------------------------------------------------------|
A-----4-7-554p0-|444444444---------------------------------------------------|
E--22--5--------|------------------------------------------------------------|

(Play 1x)
G----------------------------------------------------------------------------|
D----------------------------------------------------------------------------|
A-------55555-----55555-----55555-44444444-----------------------------------|
E-22222------22222-----22222-------------------------------------------------|

(Repeat 2x)
G----------------------------------------------------------------------------|
D-----------4444 7640--------------------------------------------------------|
A-2222244444---------2222244444-----0h3/55555-----0h3/55555-----0h3/55555----|
E------------------------------22222---------22222---------22222-------------|

G----------------------------------------------------------------------------|
D----------------------------------------------------------------------------|
A-444444444------------------------------------------------------------------|
E----------------------------------------------------------------------------|

G---------------|------------------------------------------------------------|
D---------------|---------22--------------------------1212121214141414-------|
A-----4-7-554p0-|444445544--44-55555/77777/88888/99999-----------------------|
E--22--5--------|------------------------------------------------------------|

(Play 2x)
G----------------------------------------------------------------------------|
D----------------------------------------------------------------------------|
A-------55555-----55555-----55555-44444444-----------------------------------|
E-22222------22222-----22222-------------------------------------------------|

(Play 1x
G----------------------------------------------------------------------------|
D-----------4444 7640-----------------------------------7640h467-------------|
A-2222244444---------555554444422222-----------------------------------------|
E-----------------------------------22222442222200000000---------------------|

(Play 2x)
G---------------|------------------------------------------------------------|
D---------------|------------------------------------------------------------|
A-----4-7-554p0-|444444444---------------------------------------------------|
E--22--5--------|------------------------------------------------------------|

(Play Til End)
G----------------------------------------------------------------------------|
D-----------4--4-------------------------------------------------------------|
A---4--4--55-55--------------------------------------------------------------|
E-22-22----------------------------------------------------------------------|

THIS IS A GREAT CURE SONG,THIS SONG IS OFF THERE FIRST ALBUM. ENJOY! ANY QUESTIONS 
ME AT KJSINFLA@AOL.COM
Добавлено: 20.05.2012
Другие материалы по этой песне:
  • Аккорды и текст

Страница создана 20.05.2012
http://primanota.ru/cure/jumpin-someone-elses-train-chords.htm
Привет, Гость.
Предлагаем пройти революционный курс по гитаре.
Подарок от PrimaNota.Ru, забирай!