PrimaNota.ru - самый крупный в мире бесплатный архив песенных текстов, аккордов, табулатур и нот


Cult - True Believers - текст песни, таба, видео

Регистрация Запомнить меня
Войти через:  Facebook Google Twitter Vk Yandex Mail.ru

Cult - True Believers - текст песни, таба, видео

Печатать
Просмотров: 140
Song: "True Believers"
Artist: The Cult
Album: Beyond Good and Evil

Tabbed by Robert Pessagno

Intro:
Riff A
(Regular Tuning)
        
        Dsus2                 G5                Bb6      Csus2
|-------0-------|-------3-------|---------|---------|
|-----3---3---3-|-----3---3---3-|-----3---|-----3---|
|---2-------2---|---0-------0---|---0---0-|---0---0-|
|-0-------------|---------------|---------|---------|
|---------------|---------------|-1-------|-3-------|
|---------------|-3-------------|---------|---------|

          D              Dsus2            G5
|-------2---3-2-|-------0-------|-------3-------|
|-----3---3-----|-----3---3---3-|-----3---3---3-|
|---2-----------|---2-------2---|---0-------0---|
|-0-------------|-0-------------|---------------|
|---------------|---------------|---------------|
|---------------|---------------|-3-------------|

      Bb6   Csus2      D
|-------3--------|-------2---3-2--|
|-----3---3----3-|-----3---3------|
|---0------------|---2------------|
|----------------|-0--------------|
|-1-----------3--|----------------|
|----------------|----------------|

Mini solo in intro:
with or without slide, preferably with a slide

|-10---10/3--3/5--5/6/5--5--1--3----|
|---------------------------------3-|
|-----------------------------------|
|-----------------------------------|
|-----------------------------------|
|-----------------------------------|
play this another time, except end on 10 on the e string instead of 3 on the 
B string

The strumming part after the intro:
Riff B
|-0----|-3----|------|------|-0----|-2----|
|-3----|-3----|-3----|-3----|-3----|-3----|
|-2-x9-|-0-x9-|-0-x4-|-0-x4-|-2-x4-|-2-x4-|  Play twice
|-0----|-0----|------|------|-0----|-0----|
|------|------|-1----|-3----|------|------|
|------|-3----|------|------|------|------|

:49 "caught up in the moment..."
Riff C
|-3-------------------|-2-|
|-3-play this chord---|-3-|
|-0-a bunch of times,-|-2-|
|-0-then end on ----->|-0-|
|---------------------|---|
|---------------------|---|

***From now on, Guitars are Dopped D Tunned***
Chorus:
Riff D

|----------------|------------------|--------------------|
|----------------|------------------|--------------------|
|----------------|------------------|--------------------| 
|-2--2-2-2-2-2---|-5--5-5-5-5-5-5-5-|--------------------|  
|-0--0-0-0-0-0-2-|-3--3-3-3-3-3-3-3-|-5--5-5-5-5-5--3--0-|
|----------------|------------------|-5--5-5-5-5-5--3--0-|
             ^              ^   ^              ^
            PM              PM PM             PM

Chorus:
Riff E
|----------------|--------------------|--------------------
|----------------|--------------------|--------------------
|----------------|----------5-7-7-7-5-|--------------------
|-2--2-2-2-2-2---|-5--5-5-5-----------|--------------------
|-0--0-0-0-0-0-2-|-3--3-3-3-3/5-5-5/3-|-5--5-5-5-5-5--3--0-
|----------------|--------------------|-5--5-5-5-5-5--3--0-
           ^                                                 ^
          PM                                    PM

-2--2-2-2h3p2-0h2p0-0-| play this    |-2--2-2---------------|
-3--3-3-3-----3-----3-| part again,  |-3--3-3---------------|
-2--2-2-2-----2-----2-| but instead  |-2--2-2-9/12-12/14-14-|
-0--0-0-0-----0-----0-| the ending   |-0--0-0---------------|
----------------------| goes like    |--------7/10-10/12-12-|
----------------------| this    ------> |----------------------|

Verse:
Riff F
|------------------|------------------|---------------------
|------------------|------------------|---------------------
|------------------|------------------|---------------------
|------------------|------------------|---------------------
|-0--0-0-0-0-0-0-0-|-5--5-5-5-5-5-5-5-|-8--8-8-8-8h10-10-10-
|-0--0-0-0-0-0-0-0-|-5--5-5-5-5-5-5-5-|-8--8-8-8-8h10-10-10-
           ^   ^              ^   ^
             PM   PM            PM   PM

-------|---------------------------|
-------|---------------------------|
-------|---------------------------|
-------|---------------------------|
-10-10-|-12--12-12-12-X-X-12-X-12/-|
-10-10-|-12--12-12-12-X-X-12-X-12/-|

Part before second chorus:
Riff G
|-----------------------| Repeat     |-2-|
|-----------------------| a bunch    |-3-|
|-----------------------| of times,  |-2-|
|-----------------------| and end    |-0-|
|-5-X--X-X--X-X-5-X-5-X-| on-------> |---|
|-5-X--X-X--X-X-5-X-5-X-|            |---|

Part before solo:
Riff H
|-----------------------|
|-----------------------|
|-----------------------| Repeat a bunch of times
|-----------------------|
|-3h5-5-0-3h5-5-0-3h5-5-|
|-3h5-5-0-3h5-5-0-3h5-5-|

Backround Part in the part before the solo:
Riff I
|----------|----------|------------|----------|----------|
|-7--5--3--|-7--5--3--|-7--8---10--|-7--5--3--|-7--5--3--|
|-9^-7^-5^-|-9^-7^-5^-|-9^-10^-12^-|-9^-7^-5^-|-9^-7^-5^-|
|----------|----------|------------|----------|----------|
|----------|----------|------------|----------|----------|
|----------|----------|------------|----------|----------|

|------------|-------------|
|-7--8---10--|-7--5--7--3--|
|-9^-10^-12^-|-9^-7^-9^-5^-|
|------------|-------------|
|------------|-------------|
|------------|-------------|

Solo:
Play Riff D During the solo
(Full Bend)    
|----------------------|-----------------------------------
|----5-5-5-------------|--------------------8-8-8-8-8--/10-
|-4^.......4v--2b4-2~~-|-2-2-2/4-4/5-5/7----7-7-7-7-7--/11-
|----------------------|--------------------5-5-5-5-5------
|----------------------|-----------------------------------
|----------------------|------------------5----------------
     (Full Bend)
-------|----5-------5----------------------------------------
-8-7~~-|-8^---8----5--8--------------5--5-5--/10-/10-/10-/10-
-9-7~~-|--------7^------76^v7p5-7-5--5--5-5--/11-/11-/11-/11-
-------|---------------------------7-------------------------
-------|-----------------------------------------------------
-------|-----------------------------------------------------

-------------|
-/10/8-------|
-/11/9-7h9-7-|
-------------|
-------------|
-------------|

Part after solo:
Riff J
|-------------------------|-------------------------|-------
|-------------------------|-------------------------|-------
|-------------------------|-------------------------|-------
|-------------------------|-------------------------|-------
|-5p3-0-0-X-X-0-X-X-0-X-X-|-5-X-X-5-X-X-5-X-X-5-X-X-|-8-X-X-
|-5p3-0-0-X-X-0-X-X-0-X-X-|-5-X-X-5-X-X-5-X-X-5-X-X-|-8-X-X-

------------------------------|
------------------------------| 
------------------------------| play twice
------------------------------|
-8-X-X-8-X-X-8h10-10-10-10-10-|
-8-X-X-8-X-X-8h10-10-10-10-10-|

The first time you play this part, play the first part three times, and the 
second time play the first part twice... you'll figure it out.

Legend:
/:Slide
PM: Palm Mute
h: hammeron
p: pull-off
X: Strike Muted Strings
^: Bend Up (Full Bends are Labels Above Given Note)
v: Bend Back Down
~: Wiggle Note
     
Добавлено: 10.10.2013
Другие материалы по этой песне:
  • Аккорды и текст

Страница создана 02.05.2012
http://primanota.ru/cult/true-believers-chords.htm
Привет, Гость.
Предлагаем пройти революционный курс по гитаре.
Подарок от PrimaNota.Ru, забирай!