PrimaNota.ru - самый крупный в мире бесплатный архив песенных текстов, аккордов, табулатур и нот


Cult - Bleeding Heart Graffiti - текст песни, таба, видео

Регистрация Запомнить меня
Войти через:  Facebook Google Twitter Vk Yandex Mail.ru

Cult - Bleeding Heart Graffiti - текст песни, таба, видео

Печатать
Просмотров: 134
"Bleeding Heart Graffiti"
by The Cult (B-side on the "Edie" single)
Written by Astbury/Duffy

This is just the main melody that runs through most of the song.  
To figure out the timing, pay attention to the spacing of the
notes in the tab.

Add some chorus, reverb and echo effects.


Just these two bars (repeat each one wherever necessary): 

e|--2---3---3----2-3---2----|
B|-3-3-----3----3-3---3-----|
G|--------------------------|
D|--------------------------|
A|--------------------------|
E|--------------------------|

e|--2---3---3----2-3---2----|
B|-5-5-----5----5-5---5-----|
G|--------------------------|
D|--------------------------|
A|--------------------------|
E|--------------------------|




For the second verse and chorus, most of the time 
it's a slight variation of the two bars:

e|--2---3---3---2-0----0-2--|
B|-3-3-----3---3-3----3-----|
G|--------------------------|
D|--------------------------|
A|--------------------------|
E|--------------------------|

e|--2---3---3---2-0----0-2--|
B|-5-5-----5---5-5----3-----|
G|--------------------------|
D|--------------------------|
A|--------------------------|
E|--------------------------|


End the song with this:

e|--2----3-2-0--------|
B|-3-3--------3-3-----|
G|--------------2-----|
D|--------------0-----|
A|--------------------|
E|--------------------|


Simple, eh!!  Now if only someone knew the other parts of the song.
Добавлено: 17.09.2015
Другие материалы по этой песне:
  • Аккорды и текст

Страница создана 07.11.2013
http://primanota.ru/cult/bleeding-heart-graffiti-chords.htm
Привет, Гость.
Предлагаем пройти революционный курс по гитаре.
Подарок от PrimaNota.Ru, забирай!