PrimaNota.ru - самый крупный в мире бесплатный архив песенных текстов, аккордов, табулатур и нот


Cult - Shape The Sky - текст песни, таба, видео

Регистрация Запомнить меня
Войти через:  Facebook Google Twitter Vk Yandex Mail.ru

Cult - Shape The Sky - текст песни, таба, видео

Печатать
Просмотров: 146
Song: Shape the Sky
Artsist: The Cult
Album: Beyond Good and Evil

Tabbed By: Robert Pessagno
Bobalooy63@aol.com

Tuning: 1 step down, drop D

Intro:
Riff A: 0:00
|---------------------------------|
|---------------------------------|
|---------------------------------|  Play 2x
|---------------------------------|
|---------------------------------|
|-0-0-0-0-0-0-0-0-0-0-0-0-0-0-0-0-|


Riff B: 0:08
|---------------------|---------------------|
|---------------------|---------------------|
|---------------------|---------------------| Play 2x
|---------------------|---------------------|
|-12-----12-----------|-12-----12-----------|
|----0-0----0-0-0-0-0-|----0-0----0-0-0-0-0-|

Verse:
Riff C: 0:16
|---------------------------------|
|---------------------------------|
|---------------------------------|
|---------------------------------|
|---------------------------------|
|-0-0-0-0-0-0-0-0-0-0-0-0-5-7-5-4-|


|---------------------------------|
|---------------------------------|
|---------------------------------|  Play 3x
|---------------------------------|
|---------------------------------|
|-3-3-3-3-3-3-3-3-3-3-3-3-3-3-3-3-|

Pre chorus:
Riff D: 0:38
|---------|----------------|----------------|------|
|---------|----------------|----------------|------|
|---------|----------------|----------------|------|
|---------|----------------|----------------|------|
|-8--7--3-|-5--------------|-5--------------|-8--7-|
|-8--7--3-|---0-5-0--0-3p0-|---0-5-0--0-3p0-|-8--7-|

Chorus:
Riff E: 0:50
|----------|-------------------------|-------------|
|----------|-------------------------|-------------|
|----------|-------------------------|-------------|
|----------|-------------------------|-------------|
|-12-10-12-|-12-12-12-12-10-12-10-12-|-12-12-12-12-|
|-12-10-12-|-12-12-12-12-10-12-10-12-|-12-12-12-12-|
             PM...                     PM...
Listen to the CD for the correct timing

|-------------------|-----------------|---|
|-------------------|-----------------|-2-|
|-------------------|-----------------|-3-|
|-------------------|-----------------|-0-|
|-10-10-10-10-10-10-|-5-5-5-5-5-5-5-5-|-0-|
|-10-10-10-10-10-10-|-5-5-5-5-5-5-5-5-|-0-|
     PM    PM         PM...........     ^
                           Let Ring
Listen to the CD for the correct timing for this too

Bridge:
Riff F: 2:06
|---------|---------|
|---------|---------|
|-------0-|-------0-|
|-----0---|-----0---|
|---5-----|---3-----|
|-5-------|-3-------|

|---------------------|---------------------|
|---------------------|---------------------|
|---------------------|---------------------| Play 3x
|---------------------|---------------------|
|-12-----12-----------|-12-----12-----------|
|----0-0----0-0-0-0-0-|----0-0----0-0-0-0-0-|

Riff G: 2:29
(Clean part)
|----------|----------|------|
|----------|----------|------|
|----------|----------|------|
|--------7-|--------7-|------|
|-8--7-3-5-|-8--7-3-5-|-8--7-|
|-8--7-3---|-8--7-3---|-8--7-|

The rest of the song just repeats the previous riffs. You'll figure it
out.
     
Добавлено: 27.06.2013
Другие материалы по этой песне:
  • Аккорды и текст

Страница создана 21.07.2012
http://primanota.ru/cult/shape-the-sky-chords.htm
Привет, Гость.
Предлагаем пройти революционный курс по гитаре.
Подарок от PrimaNota.Ru, забирай!