PrimaNota.ru - самый крупный в мире бесплатный архив песенных текстов, аккордов, табулатур и нот


Crywank - If I Were You Id Be Throwing Up - таба, видео

Регистрация Запомнить меня
Войти через:  Facebook Google Twitter Vk Yandex Mail.ru

Crywank - If I Were You Id Be Throwing Up - таба, видео

Печатать
Просмотров: 59
-------------------------------------------------------------------------------
                 IF I WERE YOU I'D BE THROWING UP - Crywank
-------------------------------------------------------------------------------
Tabbed by: skeleton-ghost
E-mail: iamskeletonghost@gmail.com
Tuning: Standard

This is my first tab and it's based on a live performance on youtube, so sorry if it's off at all.

e|-------------------------------------------------------|
B|--------8-----8-----8-----8-----4-----4-----4-----4----|
G|------0-----9-----0-----0-----0-----5-----0-----0------|
D|-------------------------------------------------------|
A|----7-----7-----9-----7-----3-----3-----5-----3--------|
E|-------------------------------------------------------|

Repeat this until the rhythm change

e|----------------------------------------------------------------|
B|--------------8--------------8-------------4-------------6------|
G|-------9---9----9-----9---9----9----0---0----0-----0---0---0----|
D|----------------------------------------------------------------|
A|----7----7---------7----7--------3----3---------5----5----------|
E|----------------------------------------------------------------| x2

And finally, the last slow part is just the first one again, and finish with a strum, sliding from 3 to 7 
on the A string

Lyrics:

The way I cast a net 
Too many holes to swim through 
As to not offend the fish 
Even if they do want you 
Safer not to presume 
Safer still to up and leave the room 
Is even eye contact rude? 
You'll never know that I noticed you. 

Too gutless to even try this 
Incase I'm met with a hostile silence 

If I were you I'd be throwing up.



Crywank is an amazing artist, and you can find all of their music here: crywank.bandcamp.com
And here is a link to the video that I tabbed this from: https://www.youtube.com/watch?v=Rk72gBwIXqk
Добавлено: 04.12.2015
Другие материалы по этой песне:
  • Аккорды и текст

Страница создана 04.12.2015
http://primanota.ru/crywank/if-i-were-you-id-be-throwing-up-chords.htm
Привет, Гость.
Предлагаем пройти революционный курс по гитаре.
Подарок от PrimaNota.Ru, забирай!