PrimaNota.ru - самый крупный в мире бесплатный архив песенных текстов, аккордов, табулатур и нот


Cruachan - Children Of Lir - текст песни, таба, видео

Регистрация Запомнить меня
Войти через:  Facebook Google Twitter Vk Yandex Mail.ru

Cruachan - Children Of Lir - текст песни, таба, видео

Печатать
Просмотров: 193
 ^ - hammer on, pull off                   
 b - bend string up                        
 r - release bend                          
 / - slide up                              
 \ - slide down                            
 ~ - vibrato 
 T - tap            
 x - struck string                         
 . - play the note and then mute it    
 < - raising volume   
PM - palm mute                            
AH - Artificial Harmonic  
NH - Natural Harmonic
\  / - Tremolo Bar
 \/


Down-D tunning: (DADGBe)

INTRO:
-Mandolin:
e|--7--5--3-------------------7--5--3--3-------------|
B|-------------7^5^3-5--------------------7^5^3-5----|
G|---------------------------------------------------|
D|---------------------------------------------------|
A|---------------------------------------------------|-|
D|---------------------------------------------------|
|
                                                      
|
|--7---8---7---5--------10--8--7--8--7---------------| |
|---------------------------------------10--8--------|-|
|----------------------------------------------------| |
|----------------------------------------------------| |
|----------------------------------------------------| |
|----------------------------------------------------|
|FIG1
                                                      
|X3
|--7----5--7--5------------------------2--3--2-------| |
|----------------8--7--8--7--5--3-/-5----------------|-|
|----------------------------------------------------| |
|----------------------------------------------------| |
|----------------------------------------------------| |
|----------------------------------------------------| |
                                                      |
|--7--5--3-------------------------------------------| |
|------------7--7^5---3---5--555--7--5---------------|-|
|----------------------------------------------------|
|----------------------------------------------------|
|----------------------------------------------------|
|----------------------------------------------------|

-On the second time of FIG1, a distor guitar plays:
|-----------------------------------------------------------------|
|-----------------------------------------------------------------|
|-----------------------------------------------------------------|
|------------------------------------------5-----2-----4----------|
|--5----4----2.--------5----4----2.--------3-----0-----2-----5----|-|
|--5----4----2.--------5----4----2.--------------------------5----|
|
                                                      
             |FIG2
|-----------------------------------------------------------------| |X2
|-----------------------------------------------------------------|-|
|-----------------------------------------------------------------|
|--2--------------------------------------------------------------|
|--0-----4-----0-----4--------5----4----2----0----2--2-2-2-4-2----|
|--------4-----0-----4--------5----4----2----0----2--2-2-2-4-2----|





VERSE1:
|--------------------------------------------------|
|--------------------------------------------------|
|-----------------------------4----4-4-4-----------|
|-0-2----2-2-2-5-4----4-4-4-5------------5-4-------|
|--------------------------------------------------|-|
|--------------------------------------------------| |
                                                     |
|--------------------------------------------------| |
|--------------------------------------------------| |
|-----------------------------4----4-4-4-----------| |
|-0-2----2-2-2-5-4----4-4-4-5------------5-4----4--|-|
|--------------------------------------------------| |
|--------------------------------------------------| |
                                                    
|FIG3
|--------------------------------------------------| |X2
|--------------------------------------------------|-|
|--7----7-7-7----------------7----7-7-7-0-4--------| |
|-------------5-5----5-5-5-5-----------------------| |
|--------------------------------------------------| |
|--------------------------------------------------| |
                                                     |
|--------------------------------------------------| |
|--------------------------------------------------|-|
|--7----7-7-7-------------------0-4^2^0------------|
|-------------4-5----5--5---2^4---------2----------|
|--------------------------------------------------|
|--------------------------------------------------|





CHORUS:
|------------------------------------------------------------|
|------------------------------------------------------------|
|------------------------------------------------------------|FIG4
|--2------------------5---------2------------------5---------|X2
|--2--------5/7--7/9--5----0----2--------5/7--7/9--5----0----|
|--2--------5/7--7/9--5----0----2--------5/7--7/9--5----0----|





BRIDGE: 
-2 guitars:
|GUITAR1:
|---------------------------------------------------------|
|---------------------------------------------------------|
|---------------------------------------------------------|
|-----4.-----------------------4--5.----------------------|
|-----2.-----------------------2--3.----------------------|-|
|-----2.--------------------------------------------------|
|
|GUITAR2:                                             |
|---------------------------------------------------------| |
|---------------------------------------------------------| |
|---------------------------------------------------------|-|
|-----2---2-2-2---4--5--4--2----------2-2-2---4--5--4--2--| |
|--2---------------------------2--3-----------------------| |
|---------------------------------------------------------| |
                                                      
     |X2
|GUITAR1:                                             |
|---------------------------------------------------------| |
|---------------------------------------------------------|-|
|---------------------------------------------------------| |
|--5--7.--------------------------4-----------------------| |
|--3--5.--------------------------2-----------------------| |
|---------------------------------------------------------| |
|GUITAR2:                                             |
|---------------------------------------------------------| |
|---------------------------------------------------------|-|
|---------------------------------------------------------|
|---------4-4-4---5--7--5--4------9^10^9------7^9^7-------|
|--3--5---------------------------------------------------|
|---------------------------------------------------------|


-Then only one guitar:
|---------------------------------------------------------|
|---------------------------------------------------------|
|---------------------------------------------------------|
|-----2---2-2-2---4--5--4--2----------2-2-2---4--5--4--2--|
|--2---------------------------2--3-----------------------|-|
|---------------------------------------------------------| |
                                                      
     |FIG5
|---------------------------------------------------------| |X4
|---------------------------------------------------------|-|
|---------------------------------------------------------|
|---------4-4-4---5--7--5--4------9^10^9------7^9^7-------|
|--3--5---------------------------------------------------|
|---------------------------------------------------------|

-Then:
|----------------------------------------------------|
|----------------------------------------------------|
|----------------------------------------------------|
|-----2--4-----2--4-----2-------2--4-----2--4-----2--|
|--2--------2--------2-------3--------3--------3-----|-|
|----------------------------------------------------| |
                                                      |X2
|----------------------------------------------------| |
|----------------------------------------------------|-|
|----------------------------------------------------|
|-----4--5-----4--5-----4-----9^10^9-----7^9^7-------|
|--5--------5--------5-------------------------------|
|----------------------------------------------------|

-FIG5 X1
-Then:
|---------------------------------------------------------|
|---------------------------------------------------------|
|---------------------------------------------------------|
|-----2---2-2-2---4--5--4--2----------2-2-2---4--5--4--2--|
|--2---------------------------2--3-----------------------|
|---------------------------------------------------------|
 
|---------------------------------------------------------|
|---------------------------------------------------------|
|---------------------------------------------------------|
|---------4-4-4---5--7--5--4-------9^10^9-7-9.------------|
|--3--5---------------------------------------------------|
|---------------------------------------------------------|

-FIG1 X1
-FIG1 X2  with  FIG2 X2




VERSE2:
-FIG3 X2




CHORUS:
-FIG4 X2




END:
-2 guitars:
|GUITAR1:
|---------------------------------------|
|---------------------------------------|
|---------------------------------------|
|--2------------------5-----------------|
|--2--------5/7--7/9--5-------5/7--7/9--|-|
|--2--------5/7--7/9--5-------5/7--7/9--| |
|GUITAR2:                                 |Fade until end
|---------------------------------------| |
|---------------------------------------|-|
|---------------------------------------|
|--0--------5/7--7/9--4-------5/7--7/9--|
|---------------------------------------|
|---------------------------------------|


Добавлено: 30.04.2012
Другие материалы по этой песне:
  • Аккорды и текст

Страница создана 01.04.2012
http://primanota.ru/cruachan/children-of-lir-chords.htm
Привет, Гость.
Предлагаем пройти революционный курс по гитаре.
Подарок от PrimaNota.Ru, забирай!