PrimaNota.ru - самый крупный в мире бесплатный архив песенных текстов, аккордов, табулатур и нот


Cruachan - Horned God - текст песни, таба, видео

Регистрация Запомнить меня
Войти через:  Facebook Google Twitter Vk Yandex Mail.ru

Cruachan - Horned God - текст песни, таба, видео

Печатать
Просмотров: 171
TITLE: Horned God
BAND: Cruachan
ALBUM: Folk-lore
MUSICIANS: John O'Fathaigh,Joe Farrell,John
Clohessy,Keith Fay,Karen Gilligan
TRANSCRIBED BY: Guillermo Gerling (lgerling@yahoo.com)


 ^ - hammer on, pull off                   
 b - bend string up                        
 r - release bend 			   
 / - slide up     			   
 \ - slide down                            
 ~ - vibrato 
 T - tap            
 x - struck string                         
 . - play the note and then mute it    
   - raising volume   
PM - palm mute                            
AH - Artificial Harmonic  
NH - Natural Harmonic
\  / - Tremolo Bar
 \/


Down-D tunning (DADGBe)

INTRO:
-Drums
-Distor guitar:
e|-------------------------------------------------------|
B|-------------------------------------------------------|
G|-------------------------------------------------------|
D|-------------------------------------------------------|
A|-2---2-2-2--2--2-2-2--2---0-2---2-2-2--2--2-2-2--2---0-|-|
D|-2---2-2-2--2--2-2-2--2---0-2---2-2-2--2--2-2-2--2---0-|
|
  
PM................................................... 
 |X3

|-------------------------------------------------------| |
|-------------------------------------------------------|-|
|-------------------------------------------------------|
|-------------------------------------------------------|
|-2---2-2-2--2--2-2-2--2---2-0---0-0-0--0--0-0-0--0---0-|
|-2---2-2-2--2--2-2-2--2---2-0---0-0-0--0--0-0-0--0---0-|
  
PM...................................................


|-------------------------------------------------------|
|-------------------------------------------------------|
|-------------------------------------------------------|
|-------------------------------------------------------|
|-2---2-2-2--2--2-2-2--2---0-2---2-2-2--2--2-2-2--2---0-|
|-2---2-2-2--2--2-2-2--2---0-2---2-2-2--2--2-2-2--2---0-|
  
PM...................................................

|-------------------------------------------------------|
|-------------------------------------------------------|
|-------------------------------------------------------|
|-------------------------------------------------------|
|-2---2-2-2--2--2-2-2--2---2-0---0-0-0--0--0-0-0--0-----|
|-2---2-2-2--2--2-2-2--2---2-0---0-0-0--0--0-0-0--0-----|
   PM...............................................


|-------------------------------------------------------------|
|-------------------------------------------------------------|
|-------------------------------------------------------------|
|-------------------------------------------------------------|
|--2--------------2------0------2--------------0--------------|
|--2--2-2-2-2-2-2-2--2-2-0--0-0-2--2-2-2-2-2-2-0--0-0-0-0-0-0-|-|
      PM..........   ...    ...    ...........   
...........   |FIG1
|-------------------------------------------------------------| |X2
|-------------------------------------------------------------|-|
|-------------------------------------------------------------|
|-------------------------------------------------------------|
|--2--------------2------0------2--------------5--------------|
|--2--2-2-2-2-2-2-2--2-2-0--0-0-2--2-2-2-2-2-2-5--5-5-5-5-5-5-|
      PM..........   ...    ...    ...........   
...........


|-------------------------------------------------|
|-------------------------------------------------|
|-------------------------------------------------|
|-------------------------------------------------|
|-7---3---3-3-3--7--3--5--3--0-------0--2---5--5--|-|
|---------------------------------5---------------| |
                                                   
|FIG2
|-------------------------------------------------| |X2
|-------------------------------------------------|-|
|-------------------------------------------------|
|-------------------------------------------------|
|-7---3---3-3-3--7--3--5--3--0-------0--2---------|
|---------------------------------5---------5--5--|

-Only flute and drums


-FIG1 X2


-FIG2 X2



VERSE1:
|-----------------------------------------------------------------|
|-----------------------------------------------------------------|
|-----------------------------------------------------------------|FIG3
|-----------------------------------------------------------------|X4
|-2-2-2-2-2-2-2-2-4-4-4-4-5-5-5-5-7-7-7-7-7-7-7-7-6-6-6-6-6-6-6-6-|
|-2-2-2-2-2-2-2-2-4-4-4-4-5-5-5-5-7-7-7-7-7-7-7-7-6-6-6-6-6-6-6-6-|

|-----------------------------------------------------------------|
|-----------------------------------------------------------------|
|-----------------------------------------------------------------|
|-----------------------------------------------------------------|
|-5-5-5-5-5-5-5-5-7-7-7-7-8-8-8-8-7-7-7-7-7-7-7-7-8-8-8-8-7-7-7-7-| FIG4
|-5-5-5-5-5-5-5-5-7-7-7-7-8-8-8-8-7-7-7-7-7-7-7-7-8-8-8-8-7-7-7-7-|----X2-----|
                                                      
                       |
|-----------------------------------------------------------------------------|
|-----------------------------------------------------------------------------|
|-----------------------------------------------------------------------------|
|-----------------------------------------------------------------------------|
|-5-5-5-5-5-5-5-5-7-7-7-7-8-8-8-8-10-10-10-10-11-11-11-11-10-10-10-10-8-8-8-8-|
|-5-5-5-5-5-5-5-5-7-7-7-7-8-8-8-8-10-10-10-10-11-11-11-11-10-10-10-10-8-8-8-8-|


-FIG3 X4

-FIG4 X2

|-----------------------|
|-----------------------|
|-----------------------|
|-----------------------|
|--7------------5----4--|
|--7------------5----4--|





BRIDGE: distor guitar1 and mandolin tabbed together
|GUITAR1:
|-----------------------------------------------------------------|
|-----------------------------------------------------------------|
|-----------------------------------------------------------------|
|-----------------------------------------------------------------|
|--7.--------------------------------7.---------------------------|
|--7.--------------------------------7.---------------------------|
|MANDOLIN:
|-----------------------------------------------------------------|
|-----------------------------------------------------------------|
|----------------------------------------9-9---7------------------|
|------------------------------------7-----------9---------7-9----|
|----------------------------------------------------10-10--------|
|-----------------------------------------------------------------|


|GUITAR1:
|-----------------------------------------------------------------|
|-----------------------------------------------------------------|
|-----------------------------------------------------------------|
|-----------------------------------------------------------------|
|--7.--------------------------------5----------------------------|
|--7.--------------------------------5----------------------------|
|MANDOLIN:
|-----------------------------------------------------------------|
|-----------------------------------------------------------------|
|-------------------------------------------7--9------------------|
|---------------------------------------7-9-------9--7-7----------|
|------------------------------------10---------------------------|
|-----------------------------------------------------------------|


|GUITAR1:
|-----------------------------------------------------------------|
|-----------------------------------------------------------------|
|-----------------------------------------------------------------|
|-----------------------------------------------------------------|
|--7.--------------------------------7.---------------------------|
|--7.--------------------------------7.---------------------------|
|MANDOLIN:
|-----------------------------------------------------------------|
|-----------------------------------------------------------------|
|----------------------------------------9-9---7------------------|
|------------------------------------7-----------9---------7-9----|
|----------------------------------------------------10-10--------|
|-----------------------------------------------------------------|


|GUITAR1:
|-----------------------------------------------------------------|
|-----------------------------------------------------------------|
|-----------------------------------------------------------------|
|-----------------------------------------------------------------|
|--7.--------------------------------5----------------------------|
|--7.--------------------------------5----------------------------|
|MANDOLIN:
|-----------------------------------------------------------------|
|-----------------------------------------------------------------|
|----------------------------------7--------7--9------------------|
|---------------------------------------7-9-------9--7-7--7-------|
|------------------------------------10---------------------------|
|-----------------------------------------------------------------|


|GUITAR1:
|-------------------------------------------------------------------|
|-------------------------------------------------------------------|
|-------------------------------------------------------------------|
|-------------------------------------------------------------------|
|--2---------------------------------2------------------------------|
|--2---------------------------------2------------------------------|
|MANDOLIN:
|-------------------------------------------------------------------|
|-------------------------------------------------------------------|
|-------2--2-----4--2---------------------2--2----4--2--------------|
|--2----------------------5--2----0--2--------------------5--2----4-|
|-------------------------------------------------------------------|
|-------------------------------------------------------------------|


|GUITAR1:
|--------------------------------------------------------------------|
|--------------------------------------------------------------------|
|--------------------------------------------------------------------|
|------------------------------------4-------4-------4-------4-------|
|--5---------------------------------2-------2-------2-------2-------|
|--5-----------------------------------------------------------------|
|MANDOLIN:
|--------------------------------------------------------------------|
|---------------5--3--------------3-----------3----5-----------------|
|---------------------4--2--------------2--4------------4--0--2--2---|
|--5----4--5----------------5--------5-------------------------------|
|--------------------------------------------------------------------|
|--------------------------------------------------------------------|


|GUITAR1:
|-------------------------------------------------------------------|
|-------------------------------------------------------------------|
|-------------------------------------------------------------------|
|-------------------------------------------------------------------|
|--2.--------------------------------2.-----------------------------|
|--2.--------------------------------2.-----------------------------|
|MANDOLIN:
|-------------------------------------------------------------------|
|-------------------------------------------------------------------|
|-------2--2-----4--2---------------------2--2----4--2--------------|
|--2----------------------5--2----0--2--------------------5--2----4-|
|-------------------------------------------------------------------|
|-------------------------------------------------------------------|


|GUITAR1:
|--------------------------------------------------------------------|
|--------------------------------------------------------------------|
|--------------------------------------------------------------------|
|------------------------------------4-------4-------4-------4-------|
|--5.--------------------------------2-------2-------2-------2-------|
|--5.----------------------------------------------------------------|
|MANDOLIN:
|--------------------------------------------------------------------|
|---------------5--3--------------3-----------3----5-----------------|
|---------------------4--2--------------2--4------------4--0--2--2---|
|--5----4--5----------------5--------5-------------------------------|
|--------------------------------------------------------------------|
|--------------------------------------------------------------------|



|GUITAR1:
|------------------------------------------------------------------|
|------------------------------------------------------------------|
|------------------------------------------------------------------|
|------------------------------------------------------------------|
|--7----7--7----7--8----8--8----8--7----7--7----7--8----8--8----8--|-|
|--7----7--7----7--7----7--7----7--7----7--7----7--7----7--7----7--|
|
|MANDOLIN:                                            
              |
|------------------------------------------------------------------| |
|------------------------------------------------------------------| |
|-------9--9----7----------7------------9--9----7------------------| |
|--7---------------9^7--9-----9----7---------------9---------7--9--|-|
|------------------------------------------------------10-10-------| |
|------------------------------------------------------------------| |FIG5
|GUITAR1:                                             |X2
|------------------------------------------------------------------| |
|------------------------------------------------------------------| |
|------------------------------------------------------------------|-|
|------------------------------------------------------------------| |
|--7----7--7----7--8----8--8----7--5----5--5----5--5----5--5----5--| |
|--7----7--7----7--7----7--7----7--5----5--5----5--5----5--5----5--| |
|MANDOLIN:                                            
              |
|------------------------------------------------------------------| |
|------------------------------------------------------------------|-|
|-------9--9----7----------7----7------------7-----9---------------|
|--7---------------9^7--9--------------7--9-------------9----7--7--|
|----------------------------------10------------------------------|
|------------------------------------------------------------------|



|GUITAR1:
|-----------------------------------------------------------------|
|-----------------------------------------------------------------|
|-----------------------------------------------------------------|
|-----------------------------------------------------------------|
|--2----2--2----2--1----1--1----1--2----2--2----2--1----1--1----1-|-|
|--2----2--2----2--2----2--2----2--2----2--2----2--2----2--2----2-|
|
|MANDOLIN:                                            
             |
|-----------------------------------------------------------------| |
|-----------------------------------------------------------------| |
|-------2--2----4--2--------------------2--2----4--2--------------|-|
|--2--------------------5--2----0--2--------------------5--2----4-| |
|-----------------------------------------------------------------| |
|-----------------------------------------------------------------| |
|GUITAR1:                                             
             |FIG6
|-----------------------------------------------------------------| |X2
|-----------------------------------------------------------------| |
|-----------------------------------------------------------------|-|
|----------------------------------4----4--4----4--4----4--4----4-| |
|--5----5--5----5--5----5--5----5--2----2--2----2--2----2--2----2-| |
|--5----5--5----5--5----5--5----5---------------------------------| |
|MANDOLIN:                                            
             |
|-----------------------------------------------------------------| |
|---------------5--3------------3-----------3---5-----------------|-|
|---------------------4--2------------2--4-----------4--0--2--2---|
|--5----4--5----------------5------5------------------------------|
|-----------------------------------------------------------------|
|-----------------------------------------------------------------|


-FIG5 X2

-FIG6 X2


Only guitar:
|------------------------------------------------------------|
|------------------------------------------------------------|
|------------------------------------------------------------|
|------------------------------------------------------------|
|--7----7--7----7--7----7--7----7--9----9--9----9--10---9----|-|
|--7----7--7----7--7----7--7----7--9----9--9----9--9----9----|
|
                                                      
        |X4
|------------------------------------------------------------| |
|------------------------------------------------------------|-|
|------------------------------------------------------------|
|------------------------------------------------------------|
|--10---1010----1010----1010----10-10---10-10---10-9----9----|
|--10---1010----1010----1010----10-9----9--9----9--9----9----|



|------------------------------------------------------------------------|
|------------------------------------------------------------------------|
|------------------------------------------------------------------------|
|------------------------------------------------------------------------|X3
|--7--------2--------0----------------7--------2--------0----------------|
|--7--------2--------0----------------7--------2--------0----------------|

|----------------------------------------------------|
|----------------------------------------------------|
|----------------------------------------------------|
|----------------------------------------------------|X2
|--7--------2--------0-------2-------3-------5-------|
|--7--------2--------0---0-0-2---2-2-3---3-3-5---5-5-|


-FIG1 X2


-FIG2 X2


-Only flute and drums


-FIG1 X2


-FIG2 X2

|---------------|
|---------------|
|---------------|
|--7------------|
|--7------------|
|--7------------|

     
Добавлено: 03.07.2013
Другие материалы по этой песне:
  • Аккорды и текст

Страница создана 03.06.2012
http://primanota.ru/cruachan/horned-god-chords.htm
Привет, Гость.
Предлагаем пройти революционный курс по гитаре.
Подарок от PrimaNota.Ru, забирай!