PrimaNota.ru - самый крупный в мире бесплатный архив песенных текстов, аккордов, табулатур и нот


Cramps - Cant Find My Mind - бас-таба, видео

Регистрация Запомнить меня
Войти через:  Facebook Google Twitter Vk Yandex Mail.ru

Cramps - Cant Find My Mind - бас-таба, видео

Печатать
Просмотров: 125
Авторы: Lux Interior, Ivy Rorschach

Cramps
Can't Find My Mind
Psychedelic Jungle

G---------------------------------|
D---------------------------------|
A-----3-5-7-7-5-3-----3-5-7-7-5-3-|
E-5-5-------------5-5-------------|


G---------------------------------|
D---------------------------------|
A-----3-5-7-7-5-3-----3-5-7-7-5-3-|
E-5-5-------------5-5-------------|


G---------------------------------|
D---------------------------------|
A-----3-5-7-7-5-3-----3-5-7-7-5-3-|
E-5-5-------------5-5-------------|
Добавлено: 31.07.2012
Другие материалы по этой песне:
  • Аккорды и текст

Страница создана 31.07.2012
http://primanota.ru/cramps/cant-find-my-mind-chords.htm
Привет, Гость.
Предлагаем пройти революционный курс по гитаре.
Подарок от PrimaNota.Ru, забирай!