PrimaNota.ru - самый крупный в мире бесплатный архив песенных текстов, аккордов, табулатур и нот


Cramps - Human Fly - текст песни, таба, видео

Регистрация Запомнить меня
Войти через:  Facebook Google Twitter Vk Yandex Mail.ru

Cramps - Human Fly - текст песни, таба, видео

Печатать
Просмотров: 358
Авторы: Lux Interior, Poison Ivy

 BAND: The Cramps
 SONG: Human Fly
 ALBUM: Off the Bone

 tabbed by Graeme Beech (gm_beech@hotmail.com)

INTRO

e|--------------------------------------------------------|
B|--------------------------------------------------------|
G|--------------------------------------------------------|
D|--7-7-6-6-5-5-4-4-3-3-2-2-1-1---------------------------|
A|------------------------------5-5-4-4-3-3-2-2-1-1--0*---|
E|--------------------------------------------------------|

 *0 about 16 times (near the end the reverb/delay effect is added)

e|------------------------------------------------------------------|
B|------------------------------------------------------------------|
G|------------------------------------------------------------------|
D|--------------0-0-3-3-(x4)----------------------------------------|
A|-0-0-3-3-(x8)--------------0-0-3-3-(x4)-------------0-0-3-3-(x4)--|
E|----------------------------------------0-0-3-3-(x4)--------------|


VERSE

e|-----------|
B|-----------|
G|-----------|
D|-----------|
A|--0-0-3-3--| through verse lyrics (x12)
E|-----------|

Well I'm a human fly that's spelled F L Y
I say buzz buzz buzz and it's just because
I'm a human fly and I don't know why

(A|--0--)
I got ninetysix tears and ninety six eyes

e|-----------------|
B|-----------------|
G|-----------------|
D|-----------------|
A|-----------------|
E|--0-0-0-0-0-2-4--|

REPEAT VERSE TAB

I got a grabage brain it's driving me insane
And I don't like the rat so push that pesticide
And baby I won't care 'cos baby I don't scare
'Cos I'm a reborn maggot using germ warfare
(rock it)

e|----------------------------------------------------------------------|
B|----------------------------------------------------------------------|
G|----------------------5-4-3-2-------------------5-4-3-2---------------|
D|-----------------------------------5-4-3-2-------------------5-4-3-2--|
A|-----------------5-------------------------5--------------------------|
E|--0-0-0-0-0-2-4--------------5--------------------------5-------------|

e|-----------------------------|
B|-----------------------------|
G|-----------------------------|
D|-----------------------------|
A|---------------0-0-3-3-(x4)--|
E|--0-0-3-3-(x4)---------------|


REPEAT VERSE TAB

I'm a human fly and that's spelled F L Y
I say buzz buzz buzz and it's just because
I'm an unzipped fly and I don't know why
And I don't know why but I say

e|----------|
B|----------|
G|----------|
D|----------|
A|-0-0-3-3--| (x12)
E|----------|

bzzzzzzzzzzzzzzzzzzz
bah tonight and I say bzzzzz
I keep right and I say bzzzzz
But I don't know why

Oh I just don't know why

e|--------------------------------------------------------------------|
B|--------------------------------------------------------------------|
G|--------------------------------------------------------------------|
D|--------------------------------------------------------------------|
A|-----------------7-7-6-6-5-5-4-4-3-3-2-2-1-1------------------------|
E|--0-0-0-0-0-2-4------------------------------5-5-4-4-3-3-2-2-1-1-0--|
Добавлено: 14.03.2012
Другие материалы по этой песне:

Страница создана 14.03.2012
http://primanota.ru/cramps/human-fly-chords.htm
Привет, Гость.
Предлагаем пройти революционный курс по гитаре.
Подарок от PrimaNota.Ru, забирай!