PrimaNota.ru - самый крупный в мире бесплатный архив песенных текстов, аккордов, табулатур и нот


Cramps - Chicken - бас-таба, видео

Регистрация Запомнить меня
Войти через:  Facebook Google Twitter Vk Yandex Mail.ru

Cramps - Chicken - бас-таба, видео

Печатать
Просмотров: 160
The Cramps
Chicken
A Date With Elvis

---------------------------------------------------------|
---------------------------------------------------------|
------1-2-1-2------1-2-1-2-------1-2-1-2------1-2-1-2----|
--00------------00-----------00-----------00-------------|

----------------------------------------------------------|
------1-2-1-2-------1-2-1-2-------------------------------|
--00------------00-----------------1-2-1-2--------1-2-1-2-|
--------------------------------00-------------00---------|

-------------------------------------------------------------------|
-------------------------------------------------------------------|
-------------------------------------------------------------------|
--7-7-7-7-7-7--5--3-3-3-3-3-3--5--0-0-0-0-0-0-0--7-7-7-7-7-7-7-7---|
Добавлено: 14.05.2012
Другие материалы по этой песне:
  • Аккорды и текст

Страница создана 14.05.2012
http://primanota.ru/cramps/chicken-chords.htm
Привет, Гость.
Предлагаем пройти революционный курс по гитаре.
Подарок от PrimaNota.Ru, забирай!