PrimaNota.ru - самый крупный в мире бесплатный архив песенных текстов, аккордов, табулатур и нот


Cradle Of Filth - Gilded Cunt - текст песни, таба, бас-таба, видео

Регистрация Запомнить меня
Войти через:  Facebook Google Twitter Vk Yandex Mail.ru

Cradle Of Filth - Gilded Cunt - текст песни, таба, бас-таба, видео

Печатать
Просмотров: 259
Уроки эстрадного вокала в Санкт-Петербурге
D-----------------------------|
G-----------------------------|
C---------------------------5-|
F--4-4--5-5-5-5--4-4--5-5-5-5-|
A--4-4--5-5-5-5--4-4--5-5-5-3-|
D--2-2--3-3-3-3--2-2--3-3-3---|


D-----------------------------------------|
G-----------------------------------------|
C-------------8---------------------------|
F--5-5-5-5-------5--7--8--8-8-9-9-8-8-9-9-|
A--5-5-5-5----------------8-8-9-9-8-8-9-9-|
D--3-3-3-3----------------6-6-7-7-6-6-7-7-|

D------------------------------------------------------------------|
G-------------------8---------8----------10------------------------|
C---7--9-10-7--9-10---10-9-10----10-9-10----10-9-10----------------|
F------------------------------------------------------------------|
A------------------------------------------------------------------|
D------------------------------------------------------------------|

D-------------------------------------------------------------------|
G-------------------8---8-------------------------------------------|
C---7--9-10-7--9-10---5---9-7-9-10-9---------------------------4----|
F--------------------------------------5--4--5--4--5--4--5--4--4--4-|
A--------------------------------------5--4--5--4--5--4--5--4--2--4-|
D--------------------------------------3--2--3--2--3--2--3--2-----2-|

D-------------------------------|
G-------------------------------|
C--------------------------5--4-|
F--4--4-5--4--4-5--4--4-5--5--4-|
A--4--4-5--4--4-5--4--4-5--3--2-|
D--2--2-3--2--2-3--2--2-3-------|
Добавлено: 10.04.2012
Другие материалы по этой песне:

Страница создана 01.03.2012
http://primanota.ru/cradle-of-filth/gilded-cunt-chords.htm
Привет, Гость.
Предлагаем пройти революционный курс по гитаре.
Подарок от PrimaNota.Ru, забирай!