PrimaNota.ru - самый крупный в мире бесплатный архив песенных текстов, аккордов, табулатур и нот


Cradle Of Filth - Death Magick For Adepts - текст песни, таба, бас-таба, видео

Регистрация Запомнить меня
Войти через:  Facebook Google Twitter Vk Yandex Mail.ru

Cradle Of Filth - Death Magick For Adepts - текст песни, таба, бас-таба, видео

Печатать
Просмотров: 202
Авторы музыки: Cradle of Filth
Авторы текста: Dani Filth
SONG:DEATH MAGICK FOR ADEPTS
ALBUM:MIDIAN
TUNING: (D,G,C,F,A,D,)

* = PALM MUTE
~ = LET NOTE RING
" = TREM PICK (PICK REALLY FAST)
// = PICKSILDE
^ = BEND
p = PULLOFF
h = HAMMER ON

 THIS SONG KICKS A** IT SHOULD BE 100% RIGHT,PLZ RATE THIS,CHEERS.

  INTRO X4

 (PICK UPWARDS TO PLAY THE BOTTOM STRINGS SO YOU HIT THE D STRING FIRST)

D----0---0----3---3----4---4-------------------]
A----0---0----3---3----4---4-------------------]
F----------------------------------------------]
C--2---2----5---5----6---6------------9-8-9----]
G--2---2----5---5----6---6-----5-6-5--7-6-7----]
D--0---0----3---3----4---4-----3-4-3-----------]


(BASS PLAYS FOR 2 BARS)

 RIFF 1 X2

D--------------------------------------------------------------------]
A--------------------------------------------------------------------]
F--------------------------------------------------------------------]
C--9-9-8-9-10-8/9-------5--------4-----9-9-8-9-10-8/9-------5---4~---]
G--7-7-6-7-8--6/7---7---3----5---2-----7-7-6-7-8--6/7---7---3---2~---]
D-------------------5-0----0-3-0------------------------5-0---0------]
                      *    *   *                          *   *


    RIFF 2 X2
D---------------------------------------]
A---------------------------------------]
F---------------------------------------]
C-------------------8--////-------------]
G--5~~-5555--4444---6--////PICKSLIDE----]
D--3~~-3333--2222-----------------------]


THEN PLAY

RIFF 1 X2
RIFF 2 X2


  (GUITAR OUT ORGAN)


THEN..

  RIFF 3

D--------------------]----------------------------]---------------------------|
A--------------------]----------------------------]---------------------------|
F--10-9-7--9-7-------]---------9~-----------------]---------9~----------------|
C--------------10-9--]--7-9-10----10-9--10-9-7-9--]--7-9-10----10-9--10-9-7-9-|
G--------------------]----------------------------]---------------------------|
D--------------------]----------------------------]---------------------------|


D---------------------------------]---------------------------------]
A---------------------------------]---------------------------------]
F---------10~---------------------]-9-10-12~-10--10-9-7-9-7---------]
C--7-9-10-----12-10-12~--10-9-10--]-------------------------10-9----]
G---------------------------------]---------------------------------]
D---------------------------------]---------------------------------]

  RIFF 4

D----------------------------------X2]---------------------------------]
A------------------------------------]---------------------------------]
F------------------------------------]---------------------------------]
C------------------------------------]---------------------------------]
G-----10"--------------------10"-----]--11"------------------10"-11"---]
D--8"----11"-10"--8"-10"-11"---------]------13"-11"--11"-13"-----------]


D-------------------------------------X2]
A---------------------------------------]
F---------------------------------------]
C---------------------------------------]
G--10"-11"-13"--13"-11"-10"-------------]
D---------------------------11"-10"-----]

  RIFF 5 X2

D----------------------------------------------------------|
A----------------------------------------------------------|
F----------------------------------------------------------|
C--9-----------12-----------13-----------12-13-12--9-8-9---|
G--7-----------10-----------11-----------10-11-10--7-6-7---|
D----0-0-0-0-0----0-0-0-0-0----0-0-0-0-0-------------------|
     * * * * *    * * * * *    * * * * *

PLAY

RIFF 1 X2
RIFF 2 X2
RIFF 3 X2
RIFF 4 X2


THEN THIS


  RIFF 6                                  1ST END              2ND END
D---------------------------------------]------------------]------------------|
A---------------------------------------]------------------]------------------|
F---------------------------------------]------------------]------------------|
C---------------------------------------]-666666-----------]--------6-6-------|
G--8/7-8/7--8/7-8/7--8/7-8/7--8/7-8/7---]-444444-7-7-6-6-6-]-333333-4-4-6-6-6-|
D--6/5-6/5--6/5-6/5--6/5-6/5--6/5-6/5---]--------5-5-4-4-4-]-111111-----4-4-4-|
                                                     * * *              * * *


                                                                   END RIFF 7
     RIFF 7  X4                                                    WITH THIS
D------------------------------------------------------------------]---------|
A------------------------------------------------------------------]---------|
F--9~------------12~------------13~--------------------------------]---------|
C-----------------------------------------------12-13-12--9-8-9----]---------|
G-----------------------------------------------10-11-10--7-6-7----]--7~-----|
D-----0-0-0-0-0------0-0-0-0-0--------0-0-0-0-0--------------------]--5~-----|
      * * * * *      * * * * *        * * * * *

 ( GUITAR OUT,DRUMS, SFX AND SPEAKING.


   RIFF 8 (OUTRO)
                                            end chord
D----------------------------------------x6]---------]
A------------------------------------------]---------]
F------------------------------9"-7"-------]---------]
C--7-7^-7^--7h9p7-7h9p7-9-10~--------------]---------]
G--0---------------------------------------]----7----]
D------------------------------------------]----5----]

 the end.


 TABBED BY:TAB_MAN84

 IF YOU WANT ME TO RAB ANYMORE CRADLE LEAVE A MSG.PLZ RATE THIS.
Добавлено: 12.06.2012
Другие материалы по этой песне:

Страница создана 28.03.2012
http://primanota.ru/cradle-of-filth/death-magick-for-adepts-chords.htm
Привет, Гость.
Предлагаем пройти революционный курс по гитаре.
Подарок от PrimaNota.Ru, забирай!