PrimaNota.ru - самый крупный в мире бесплатный архив песенных текстов, аккордов, табулатур и нот


Cradle Of Filth - Death Of Love - текст песни, таба, видео

Регистрация Запомнить меня
Войти через:  Facebook Google Twitter Vk Yandex Mail.ru

Cradle Of Filth - Death Of Love - текст песни, таба, видео

Печатать
Просмотров: 240
Уроки эстрадного вокала в Санкт-Петербурге
Artist: Cradle of Filth
Song:   The Death of Love
Album:  Godspeed On The Devil's Thunder
Year:   2008

Transcribed by ./skot [sku11fukkr@gmail.com]
Version 1.0 [20081122]
Tuning: C-F-A#-D#-G-c
Notes:
       I tabbed this in C standard because that is what I use,
   and I believe Cradle has tuned Cstd in the past. I could be
   mistaken. Either way, any corrections, additions or comments
   are always welcome to the above email address.
   Enjoy and share! \m/


VERSE

Guitar One
c-|-----------------------------------------------------------------| |
G-|-----------------------------------------------------------------| |
D#|-----------------------------------------------------------------|:|
A#|-----------------------------------------------------------------|2|
F-|-4---4---4---4---4---4---4---4---4---4---4---4---4---4---4---4---| |
C-|-2---2---2---2---2---2---2---2---2---2---2---2---2---2---2---2---| |
    .   .   .   .   .   .   .   .   .   .   .   .   .   .   .   .
Guitar Two
|-----------------------------------------------------------------| |
|-----------------------------------------------------------------| |
|-----------------------------------------------------------------|:|
|--------7----6----4-------(4)----7-6-4----2--4-------(4)---------|2|
|-4---------------------------------------------------------------| |
|-----------------------------------------------------------------| |

Guitar One
|-----------------------------------------------------------------|
|-----------------------------------------------------------------|
|-----------------------------------------------------------------|
|-7---7---7---7---7---7---7---7---7---7---7---7---7---7---7---7---|
|-5---5---5---5---5---5---5---5---5---5---5---5---5---5---5---5---|
|-----------------------------------------------------------------|

Guitar Two
|-----------------------------------------------------------------|
|-----------------------------------------------------------------|
|-----------------------------------------------------------------|
|--------9----7----6-------(6)----9-7-6----4--6-------(6)---------|
|-5---------------------------------------------------------------|
|-----------------------------------------------------------------|

both guitars
|-------------------------------------------------|
|-------------------------------------------------|
|-------------------------------------------------|
|-7-6-4-6-4---------------7-6-4-6-4---------------|
|-----------7-5-7-5-4-5-4-----------7-5-7-5-4-5-4-|
|-------------------------------------------------|

Guitar One
|-----------------------------------------------------------------| |
|-----------------------------------------------------------------| |
|-----------------------------------------------------------------|:|
|-----------------------------------------------------------------|2|
|-4---4---4---4---4---4---4---4---4---4---4---4---4---4---4---4---| |
|-2---2---2---2---2---2---2---2---2---2---2---2---2---2---2---2---| |
  .   .   .   .   .   .   .   .   .   .   .   .   .   .   .   .

Guitar Two
|-----------------------------------------------------------------| |
|-7------9----7----5--------------7----5----4----5-------4--5--4--| |
|-----------------------------------------------------------------|:|
|-----------------------------------------------------------------|2|
|-----------------------------------------------------------------| |
|-----------------------------------------------------------------| |

Guitar One
|-----------------------------------------------------------------|
|-----------------------------------------------------------------|
|-----------------------------------------------------------------|
|-7---7---7---7---7---7---7---7---7---7---7---7---7---7---7---7---|
|-5---5---5---5---5---5---5---5---5---5---5---5---5---5---5---5---|
|-----------------------------------------------------------------|

Guitar Two
|-/5------7------7------9/10----10^9----9-------7--------5--------|
|-----------------------------------------------------------------|
|-----------------------------------------------------------------|
|-----------------------------------------------------------------|
|-----------------------------------------------------------------|
|-----------------------------------------------------------------|

both guitars
|-------------------------------------------------|
|-------------------------------------------------|
|-------------------------------------------------|
|-7-6-4-6-4---------------7-6-4-6-4---------------|
|-----------7-5-7-5-4-5-4-----------7-5-7-5-4-5-4-|
|-------------------------------------------------|



CHORUS

both guitars
|------------------------------------------------------------------
|------------------------------------------------------------------
|------------------------------------------------------------------
|----------------------------------------------------6/7-7\6-6-(6)-
|-7--6--4--4------4--4--4--7--6--4--4------6--7--9---4/5-5\4-4-(4)-
|-5--4--2--2------2--2--2--5--4--2--2------4--5--7---4/5-5\4-4-(4)-

both guitars (continued)
|---------------| |
|---------------| |
|---------------|:|   Guitar One repeats two more times while
|-7/9-9\7-7\6---|2|   Guitar Two does the following:
|-5/7-7\5-5\4---| |
|-5/7-7\5-5\4---| |

Guitar Two
|-5--4--2--2------2--2--2--5--4--2--2------4--55/77/9^1010^99(9)-

(continued)
|-10^12-12^10-10^9-|:2|



INTERLUDE A

Guitar One
|--------------------------------------------------------------| |
|--------------------------------------------------------------| |
|--------------------------------------------------------------|:|
|--------------------------------------------------------------|2|
|-6---(6)--8-9-(9)-9-8-6-8-------------------------------------| |
|--------------------------7-(7)-6^7^6-(6)-6^7^9-(9)-667-6-7-9-| |

Guitar Two
|-2---(2)--4-2-(2)-6-4-2-4-2-(2)-4^2^4-(4)-6^4^6-(6)-467-6-4-6-| |
|--------------------------------------------------------------| |
|--------------------------------------------------------------|:|
|--------------------------------------------------------------|2|
|--------------------------------------------------------------| |
|--------------------------------------------------------------| |



INTERLUDE B

(break)

Guitar One
|-----------------------------------------| |
|---9-7-9-------------9-7-9-10--10^9^7-10-| |
|-6-------6---------6---------------------|:|
|-----------------------------------------|3|
|-----------------------------------------| |
|-----------------------------------------| |

Guitar Two
|---9-7-9-------------9-7-9-10--10^9^7-10-
|-7-------7---------7---------------------
|-----------------------------------------
|-----------------------------------------
|-----------------------------------------
|-----------------------------------------

Guitar Two (continued)
|---9-7-9-------------9-7-9-10--10^9^7-10-
|-6-------6---------6---------------------
|-----------------------------------------
|-----------------------------------------
|-----------------------------------------
|-----------------------------------------

Guitar Two (continued)
|---9-7-9-------------9-7-9-10--10^9^7-10-
|-7-------7---------7---------------------
|-----------------------------------------
|-----------------------------------------
|-----------------------------------------
|-----------------------------------------

Guitar One (continued)
|---------------------------10-9-7-------------|
|---9-7-9-------------9-7-9--------10-9-7------|
|-6-------6---------6---------------------10-7-|
|----------------------------------------------|
|----------------------------------------------|
|----------------------------------------------|

Guitar Two (continued)
|---------------------------10-9-7-------------|
|-7-9-7-9-----------7-9-7-9--------10-9-7------|
|---------6-------------------------------10-7-|
|----------------------------------------------|
|----------------------------------------------|
|----------------------------------------------|



ORDER:
   Verse
   Chorus
   Verse
   (break)
   Chorus 2x
   Interlude A 2x
   (break)
   Interlude B
   Interlude A
   Verse
   Chorus
Добавлено: 26.06.2012
Другие материалы по этой песне:

Страница создана 18.03.2012
http://primanota.ru/cradle-of-filth/death-of-love-chords.htm
Привет, Гость.
Предлагаем пройти революционный курс по гитаре.
Подарок от PrimaNota.Ru, забирай!