PrimaNota.ru - самый крупный в мире бесплатный архив песенных текстов, аккордов, табулатур и нот


Cradle Of Filth - Cthulhu Dawn Part One - таба, видео

Регистрация Запомнить меня
Войти через:  Facebook Google Twitter Vk Yandex Mail.ru

Cradle Of Filth - Cthulhu Dawn Part One - таба, видео

Печатать
Просмотров: 132
Tabbed by Growl Renfield using the "notepad"

Artist: Cradle Of Filth
Album: Midian
Music For Nations

Key
.- palm mute
\- slide down to
h- hammer on
p- pull off
ph- pinch harmonic
X- rake
\- slide up to
~- vibrato
b- bend


This is first song on Midian (actually the second because there is a very
cool instrumental before it), and it's by far..... my third favorite on the
album. It's  very simple song. you just have to have a very quick wrist to
play it properly. Well lets do this

Tune guitars down one step to D

Gian Riff A
|-------------------------------------------------------------------------------------------------|
|-------------------------------------------------------------------------------------------------|
|-------------------------------------------------------------------------------------------------|
|---------------------------------------------------------------------------------------10--------|
|------------7788887777----------77778888777755555----8877778888------8----6----------------------|
|-555555-------------------4444----------------------------------------------------------4--------|

Paul Riff A
|--------------------------------------------------------------------------------------------------|
|--------------------------------------------------------------------------------------------------|
|--------------------------------------------------------------------------------------------------|
|------------------------------------------------------------------7755557777-------10-------------|
|------------7788887777----------7777888855555--------------------------------8----6---------------|
|-555555-------------------4444-----------------------------------------------------------4--------|
For the second time RIFF A is played, Gian plays the exact same thing as
Paul.

Gian Riff B
|----------------------------------------------------------------------------------------------------|
|----------------------------------------------------------------------------------------------------|
|-----5-4-5--------5-4-5--------5-4-5--------5-4-5-------5-4-5--------5-4-5--------5-4-5------5-4-5--|
|-7-------------7-------------7-------------7-------------6-------------6-------------6-----------6--|
|----------------------------------------------------------------------------------------------------|
|----------------------------------------------------------------------------------------------------|

Gian (continued) Riff B
|----------------------------------------------------------------------------------------------------|
|-----6-5-6--------6-5-6--------6-5-6--------6-5-6--------9-8-9--------9-8-9-------9-8-9------9-8-9--|
|-7-------------7-------------7-------------7-------------10------------10-----------10---------10---|
|----------------------------------------------------------------------------------------------------|
|----------------------------------------------------------------------------------------------------|
|----------------------------------------------------------------------------------------------------|

Paul Riff B
|----------------------------------------------------------------------------------------------------|
|----------------------------------------------------------------------------------------------------|
|-----5-4-5--------5-4-5--------5-4-5--------5-4-5-------5-4-5--------5-4-5--------5-4-5------5-4-5--|
|-7-------------7-------------7-------------7-------------6-------------6-------------6-----------6--|
|----------------------------------------------------------------------------------------------------|
|----------------------------------------------------------------------------------------------------|

Paul (continued) Riff B
|-----------------------------------------------------------------------------------------------------|
|-----6-5-6--------6-5-6--------6-5-6--------6-5-6--------9-8-9--------9-8-9-------9-8-9----11-9-8-9--|
|-7-------------7-------------7-------------7-------------10------------10-----------10---------------|
|-----------------------------------------------------------------------------------------------------|
|-----------------------------------------------------------------------------------------------------|
|-----------------------------------------------------------------------------------------------------|

That is the most difficult part of the song. Just us alternate picking, slow at
first, then build up speed. If you'll notice, the Paul plays a slightly different
part then Gian does at the end of the tab for RIFF B. It pays to listen as
close as possible.

Gian Riff C
|---------------------------------------------------------------------------------------------|
|---------------------------------------------------------------------------------------------|
|-----------------------------------------------------------4444444444/7777777777-------------|
|-----------------------------------------------------------2222222222/5555555555-------------|
|444444/5--444444/5--444444/5--444444/5-------------------------------------------------------|
|222222/3--222222/3--222222/3--222222/3-------------------------------------------------------|

Paul Riff C
|---------------------------------------------------------------------------------------------|
|---------------------------------------------------------------------------------------------|
|-----------------------------------------------------------4444444444/7777777777-------------|
|-----------------------------------------------------------2222222222/5555555555-------------|
|444444/5--444444/5--444444/5--444444/5-------------------------------------------------------|
|222222/3--222222/3--222222/3--222222/3-------------------------------------------------------|

That is the part where Dani begins to sing. It's very simple, you just need
to be able to pick extra fast. Same with RIFF B, just start slow and develop
speed.

That's All I have right now, i'll try to figure out the rest of the song later.
If you have any questions, corrections, or cradle requests, email Growl
Renfield at creepingdeathforever@yahoo.com and check out my band
DRACULOVE at http://www.draculove.com
Добавлено: 30.05.2012
Другие материалы по этой песне:
  • Аккорды и текст

Страница создана 30.05.2012
http://primanota.ru/cradle-of-filth/cthulhu-dawn-part-one-chords.htm
Привет, Гость.
Предлагаем пройти революционный курс по гитаре.
Подарок от PrimaNota.Ru, забирай!