PrimaNota.ru - самый крупный в мире бесплатный архив песенных текстов, аккордов, табулатур и нот


Cradle Of Filth - Deceiving Eyes - таба, видео

Регистрация Запомнить меня
Войти через:  Facebook Google Twitter Vk Yandex Mail.ru

Cradle Of Filth - Deceiving Eyes - таба, видео

Печатать
Просмотров: 103
Уроки эстрадного вокала в Санкт-Петербурге
deceiving eyes
dgcfad

Riff A 0:00-0:34
--------------------------------------------------|
--------------------------------------------------|
--------------------------------------------------|
-------6-----------------------6-6----------------|
3-3--6---5---6666-5-6-9-8--6-6-----5---6666-5-6-9-|
1-1--4-----4-4444-3-4-7-6--4-4-------4-4444-3-4-7-|


Riff B Gt1 all notes tremelo picked+semi pm'd1st time
2nd time fully pm'd and a bit slower picked 0:35-0:54
----------------------------------------------------|
----------------------------------------------------|
----------------------------------------------------|
----------------------------------------------------|
----------------------------------------------------|
0---------------------4-7---------3-----5--6--------|

Gt2 *=semi bend
----------------------------------------------|
----5--4*-------5--4*------7-5*-4----5-4*-2---|
-2---------2--2-------2--4--------5-----------|
----------------------------------------------|
----------------------------------------------|
----------------------------------------------|

Riff C *=pm 0:55-1:20
-------------------]-----------------------------------|
-part 1------------]-part 2----------------------------|
-------------------]-----------------------------------|
------------*******]-----------------------------------|
3-6-5-3-5-6-5-6-5-3]************--^--********--^-------|
1-4-3-1-3-4-3-4-3-1]000000000000-2-3-00000000-7-8-0-7\-|

--------]------------------------------]-----------|
--------]--part 3----------------------]-----------|
-part 1-]-----------------///----------]part 2,1,3-|
--------]///-///-///--///-7-///-///----]-----------|
--------]-7--9---10---9-----10--9---///]-----------|
--------]---------------------------10-]-----------|

Riff D Gt.1 1:20-1:30,3:00-3:11 tremelo picked
------------------------------------------|
--------------___-------------------------|
-------------/   \------------------------|
------7-6-7--6-7-6-4----7-6-----6---------|
-4-------------------5------5-7-----------|
------------------------------------------|

Gt.2                                          ___
------------------___------------------------/   \------|
-----------------/   \-------------------14-12-14-12----|
---11-13-14-14-13-14-13-11----14-16-14-11------------13-|
-11------------------------12---------------------------|
--------------------------------------------------------|
--------------------------------------------------------|

Riff E all tremelo picked 1:30-1:40,3:12-3:20,5:43-5:54-|
--------------------------------------------------------|
--------------------------------------------------------|
--------------------------------------------------------|
---4--6-7---7-6-4---7-9-7---10-9-7----------------------|
-4--------4-------5-------5-----------------------------|
--------------------------------------------------------|

Riff F all notes tremlo picked 1;41-2:05,4:57
----------------------------------------------------------|
----------------------------------------------------------|
-----------------------------------------------------7-6--|
--------------------------------------------------5-4-----|
--9-------------9--------5-4----9--------------5-4--------|
7---10-6-7-9--7---10-3-2------7--10-6-7-9--3-2------------|


Riff G 2:05-2:26.5:20-5:43
-------------------------------------------------------------|
-------------------------------------------------------------|
-------------------------------------------------------------|
-------------------------------------------8-7-11------------|
-3--4-3-4-6-7-6-6-****-7-****--6--3--4-3-4-6-5/9--****4****4-|
-1--2-1-2-4-5\4-4-4444-5-55555-4--1--2-1-2-6-5/9--2222222222-|


Riff H 2:31-2:55
----------------------------------------------|
----------------------------------------------|
----------------------------------------------|
-----------------------------*-*-*-*--9-8-7---|
6-****-6-****-6-**-6-****-6-*-2-4-5-6-7-6-5---|
4-4444-4-4444-4-44-4-4444-4-440-2-3-4---------|


interlude 2:55-3:01
----------------------------------|
----------------------------------|
----------------------------------|
-----------------------------6----|
---------------------------5---5--|
-000-000-000-000-000-000-4--------|


Riff I Gt.1 4:00-4:12,4:35-4:57
------------------------------------------|
------------------------------------------|
----------------------------__------------|
---------------------------/  \-----------|
--9-------------9--------5-4-5-4----------|
7---10-6-7-9--7---10-3-2------------------|

--------------------------------------_-----|
-----------------------------_-------/ \----|
--------------------__------/ \---7-6-7-6---|
-------------------/  \--5-4-5-4------------|
--9--------------5-4-5-4--------------------|
7---10-6-7-9-3-2----------------------------|


Riff I Gt.2                                            ____
--------------------------------------------___---------------|    \
------------------------------ ____--------/   \--15-14-15-14-|
------------------------------/    \---12-11-12-11------------|
--4---4-2-4-2-4---4--4------12-11-12-11-----------------------|
2---2-----------2--2---10-9-----------------------------------|
--------------------------------------------------------------|

Riff J Gt.1 semi-pm'd throughout 4:12-4:34
---------------------------------------------------------------|
---------------------------------------------------------------|
---------------------------------------------------------------|
--10-9---10-9---9---9-7---9-7---7---5-4--5-4--5--5-4-2-4-2-4-5-|
7------7------7---6-----6-----6---3-----3----3--2--------------|
---------------------------------------------------------------|

Riff J Gt.2
-------------------------------------------------|
---------------___-------------------------------|
---9-8--------/   \------------------------------|
--------10--10-12-10---9-------------------------|
-7-----------------------------------------------|
-------------------------------------------------|

Riff K [solo] 4:57-5:20
-------------------------------------------------------|
---------------------------11-12--12-12-12-11----------|
---------11-------11--9~~~~-------------------11--12~~-|
-9--11-12--12--11--------------------------------------|
-------------------------------------------------------|
-------------------------------------------------------|

*=pm
--------------------------------------------------|
*****************************--11-*************11-|
--------9--------------9-11-12----12-11-9-11-12---|
9-11-12---12-11-9-11-12---------------------------|
--------------------------------------------------|
--------------------------------------------------|

--------------------------------///--///--///--///-|
-14--12--11---------------------15---14---12---14--|
-------------12--11--12--11--9---------------------|
---------------------------------------------------|
---------------------------------------------------|
---------------------------------------------------|


15---14---12---14---15---14---12-------------|
///--///--///--///--///--///--///--15---14---|
---------------------------------------------|
---------------------------------------------|
---------------------------------------------|
---------------------------------------------|


------------------------------------------------------|
-----------11-12----11--------------------------------|
-----------------12----12-11-9-11--9------------------|
-12--11~~------------------------12-12-11-9-12-11-15~-|
------------------------------------------------------|
------------------------------------------------------|


Riff L all notes tremelo picked 5:54-6:05
-----------------------------------]--------|
-----------------------------------]--------|
-----------------------------------]--------|
----6--7--6--------7--6----7--6----]--------|
4--------------5--------5----------]-2------|
-----------------------------------]-0------|
Добавлено: 25.07.2012
Другие материалы по этой песне:
  • Аккорды и текст

Страница создана 25.07.2012
http://primanota.ru/cradle-of-filth/deceiving-eyes-chords.htm
Привет, Гость.
Предлагаем пройти революционный курс по гитаре.
Подарок от PrimaNota.Ru, забирай!