PrimaNota.ru - самый крупный в мире бесплатный архив песенных текстов, аккордов, табулатур и нот


Converge - Grim Heart Black Rose - текст песни, таба, видео

Регистрация Запомнить меня
Войти через:  Facebook Google Twitter Vk Yandex Mail.ru

Converge - Grim Heart Black Rose - текст песни, таба, видео

Печатать
Просмотров: 277
Converge - Grim heart / Black Rose intro

E||----------------------|--------------------------|------------------3----|
B||----------------------|--------------------------|------------------3----|
G||--------7-----7----7--|--------3-----------3-----|---------------3--3----|
D||-----7-----7--7----7--|-----5-----5-----5-----5--|------------5-----5----|
A||--5-----------5----5--|--5-----------5-----------|--5s--3--3--------3----|
D||----------------------|--------------5-----------|-----------------------|


--------------------------|------------------------|-------------------------
--------------------------|------------------------|-------------------------
--------3-----------3-----|---------------7-----7--|--------3-----------3----
-----5-----5-----5-----5--|------------7-----7--7--|-----5-----5-----5-----5-
--3-----------3-----------|--3s--5--5-----------5--|--5-----------5----------
--------------3-----------|------------------------|--------------5----------

------------------3----3--3--3--3--3--|
------------------3----3--3--3--3--3--|
---------------3--3----5--5--5--5--5--|
------------5-----5----5--5--5--5--5--|
--5s--3--3--------3----3--3--3--3--3--|
--------------------------------------|

pls help me continue , ICQ : 340269759
Добавлено: 29.05.2012
Вам также может быть интересно:
Другие материалы по этой песне:
  • Аккорды и текст

Страница создана 06.04.2012
http://primanota.ru/converge/grim-heart-black-rose-chords.htm
Привет, Гость.
Предлагаем пройти революционный курс по гитаре.
Подарок от PrimaNota.Ru, забирай!