PrimaNota.ru - самый крупный в мире бесплатный архив песенных текстов, аккордов, табулатур и нот


Converge - All We Love We Leave Behind - таба, видео

Регистрация Запомнить меня
Войти через:  Facebook Google Twitter Vk Yandex Mail.ru

Converge - All We Love We Leave Behind - таба, видео

Печатать
Просмотров: 501
-----------------------------------------------------------------
 Converge- All We Love We Leave Behind
-----------------------------------------------------------------
Tabbed by: SAM
Email: magicpigdetective13@gmail.com

Tuning: CGCFAD

I was surprised nobody had this tabbed so I just figured it out myself.  This is 
my first tab so its probably not perfect, sounds pretty close to me though.

Part A
D|----------------------------------------------------|
A|----------------------------------------------------|
F|------------8p7-------3h5---------------------------|   x7
C|------------------8-------------------8p7------5h7--| 
G|---5h6p5---------------------5h6p5---------8--------|
C|----------------------------------------------------|

D|----------------------------------------------------------------------|
A|----------------------------------------------------------------------|
F|------------8p7------3h5--------------------8p7-8h10-----------|
C|-------------------8---------------8p7----------------------------|
G|--5h6p5---------------------------------8--------------------------|
C|----------------------------------------------------------------------|

D|-----------------------------------------------------------|
A|-----------------------------------------------------------|
F|-------------8p7--------3h5--------------------------------|   x5
C|------------------8---------------------8p7-------5h7------|          
G|---5h6p5------------------------5h6p5---------8------------|
C|-----------------------------------------------------------|


D|-----------------------------------------------------------|
A|-----------------------------------------------------------|
F|------------8p7------3h5-----------------------8p7-8h10----|
C|-----------------8---------------8p7-----------------------|
G|--5h6p5--------------------------------8-------------------|
C|-----------------------------------------------------------|

1:16

D|-----------------------------------------------------------|
A|-------11--------------------11---------------14-----------|
F|---7---------9~---------/9-------9-------9/12-----12-------|
C|-----------------------------------------------------------|
G|-----------------------------------------------------------|
C|-----------------------------------------------------------|

Play  all of Part A again

Part B
D|-------------------------------------------------------------------|
A|-------------------------------------------------------------------|
F|-1010101010101010101010101010101010101010101010101010101010101010--| 
C|-------------------------------------------------------------------|
G|-------------------------------------------------------------------|
C|-------------------------------------------------------------------|

D|--------------------------------------------------------------------|
A|--------------------------------------------------------------------|
F|--99999999999999999999999999999999--77777777777777777777777777777777|
C|--------------------------------------------------------------------|
G|--------------------------------------------------------------------|
C|--------------------------------------------------------------------|

D|---------------------------------------------|
A|---------------------------------------------|
F|--999999999999999999999999999999999----------|
C|---------------------------------------------|
G|---------------------------------------------|
C|---------------------------------------------|

Chorus
D|-10--10-------10--10---------10--10-----------11---|
A|--x---x--------x---x---------x----x-----------x----|
F|- 7---7--------7---7---------7----7-----------8----|  x3
C|---------------------------------------------------|
G|-----------0------------0--------------------------|
C|-----------0------------0---------------0000-------|

D|------------------------------------------------------|
A|------------------------------------------------------|
F|------------------------------------------------------|
C|----7--7------7---7------7---7------------------------|
G|----5--5------5---5------5---5------------------------|
C|-----------0---------0------------8/13b~~~------------|

Part A
Part B
Chorus

3:39
Part C
D|-------------------------------------------------------------------|
A|-------------------------------------------------------------------|
F|-------------------------------------------------------------------|
C|--7-7-----7-7-----7-7----7-7-----2-2-----2-2-----2-2----2-2--------|
G|--5-5-----5-5-----5-5----5-5-----0-0-----0-0-----0-0----0-0--------|
C|------0-------0--------0------0-------0-------0-------0------0-----|

D|----------------------------------------------------------------------|
A|----------------------------------------------------------------------|
F|----------------------------------------------------------------------|
C|-----------------------------------------------------6--6----66666666-|
G|-5-5----5-5----5-5-----5-5------8-8------8--8--------4--4----44444444-|
C|-5-5--0-5-5-0--5-5--0--5-5--0---8-8---0--8--8----0---------0----------|


Chorus


| /  slide up
| \  slide down
| h  hammer-on
| p  pull-off
| ~  vibrato
| +  harmonic
| x  Mute note
Добавлено: 09.08.2013
Другие материалы по этой песне:

Страница создана 09.08.2013
http://primanota.ru/converge/all-we-love-we-leave-behind-chords.htm
Привет, Гость.
Предлагаем пройти революционный курс по гитаре.
Подарок от PrimaNota.Ru, забирай!