PrimaNota.ru - самый крупный в мире бесплатный архив песенных текстов, аккордов, табулатур и нот


Converge - Dark Horse - таба, видео

Регистрация Запомнить меня
Войти через:  Facebook Google Twitter Vk Yandex Mail.ru

Converge - Dark Horse - таба, видео

Печатать
Просмотров: 190
Авторы музыки: Kurt Ballou, Nate Newton, Ben Koller, Jacob Bannon
Авторы текста: Jacob Bannon
Intro/Verse
|----------------------------------|
|----------------------------------|
|-----14-12-10-----9-10-7-10-9-----|
|--12----------12--------------10--|
|----------------------------------|
|----------------------------------|

Pre-Chorus
|-----------------------------------|
|-----------------------------------|
|--7----5----3---2------3------5----|
|----9----7----5---4--5---5--7---7--|
|-----------------------------------|
|-----------------------------------|

Chorus
|------------------------------------------||-10--10--10-----10-----10---|
|------------------------------------------||---------------------10--10-|
|------------------------------------------||---10--10--10-12--12--------|
|--7-7-7-7---6-6-6-6-8-7-7-7-7-10-6-6-6-6--||----------------------------|
|--5-5-5-5-4-4-4-4-4-6-5-5-5-5-8--5-5-5-5--||----------------------------|
|--7-7-7-7---6-6-6-6-8-7-7-7-7-10-6-6-6-6--||----------------------------|

Bridge I
|------------------------------------------------------------------------|
|11-11-11-11-11-11-11-11-8-8-8-8-8-8-8-8-6-6-6-6-6-6-6-6-3-3-3-3-3-3-3-3-|
|10-10-10-10-10-10-10-10-7-7-7-7-7-7-7-7-7-7-7-7-7-7-7-7-2-2-2-2-2-2-2-2-|
|------------------------------------------------------------------------|
|------------------------------------------------------------------------|
|------------------------------------------------------------------------|

Bridge II
|-----------------------------------------------|
|-2/3-3-3-3-1-3-3/4-4-4-4/6-6-6-6-4-6-6/8-8-8-8-|
|-----------------------------------------------|
|-----------------------------------------------|
|-----------------------------------------------|
|-----------------------------------------------|

-------------------------------------------------------|
/10-10-10-10-8-10-10/11-11-11-11/13-13-13-13-11-13-15\-|
-------------------------------------------------------|
-------------------------------------------------------|
-------------------------------------------------------|
-------------------------------------------------------|

Outro
|----------------------------------------------------------------------|
|----------------------------------------------------------------------|
|----------------------------------------------------------------------|
|-7-------7---10---6-------6---8---7-------7---10---6-6------6-6-------|
|-5-0-0-0-5-0-8--0-4-0-0-0-4-0-6-0-5-0-0-0-5-0-8--0-5-5-0000-5-5-0000--|
|-7-0-0-0-7-0-10-0-6-0-0-0-6-0-8-0-7-0-0-0-7-0-10-0-6-6-0000-6-6-0000--|
Добавлено: 17.06.2012
Другие материалы по этой песне:

Страница создана 27.02.2012
http://primanota.ru/converge/dark-horse-chords.htm
Привет, Гость.
Предлагаем пройти революционный курс по гитаре.
Подарок от PrimaNota.Ru, забирай!