PrimaNota.ru - самый крупный в мире бесплатный архив песенных текстов, аккордов, табулатур и нот


Coldrain - No Escape - таба, видео

Регистрация Запомнить меня
Войти через:  Facebook Google Twitter Vk Yandex Mail.ru

Coldrain - No Escape - таба, видео

Печатать
Просмотров: 261
Авторы музыки: Y.K.C, Masato
Авторы текста: Masato
-------------------------------------------------------------------------------
                             No Escape - Coldrain
-------------------------------------------------------------------------------
Tabbed by: warumonoLS

Tuning: CGCFAD

Reference video: 
https://www.youtube.com/watch?v=lMUo8Ax-hlc


Lead Guitar: Y.K.C
D|---------------------------------9-10--------------------------------------|
A|-0-7-10-0-7-10-0-7-10-0-7-10-0-0------0-8-12-0-8-0-0-8-12-0-8-0-0-0--------|
F|---------------------------------------------------------------------------|
C|---------------------------------------------------------------------------|
G|---------------------------------------------------------------------------|
C|---------------------------------------------------------------------------|

D|-10-12-10h12p10-------------10h12p10---------------------------------------|
A|----------------14-14-12-12----------14-14-12-12-14-14-12-12---------------|
F|---------------------------------------------------------------------------|
C|---------------------------------------------------------------------------|
G|---------------------------------------------------------------------------|
C|---------------------------------------------------------------------------|

D|-14-14-------14-14-15-15-14-14---------------------------------------------|
A|-------12-12-------------------12-12-14-14-10-10---------------------------|
F|---------------------------------------------------------------------------|
C|---------------------------------------------------------------------------|
G|---------------------------------------------------------------------------|
C|---------------------------------------------------------------------------|




Rhythm Guitar: Sugi
D|---------------------------------------------------------------------------|
A|---------------------------------------------------------------------------|
F|-------------------10-------10------9--------------------------------------|
C|-7--------8--------8--------7-------7--------------------------------------|
G|-5-(x16)--5-(x16)--8-(x16)--7-(x8)--7-(x8)---------------------------------|
C|-5--------5--------8--------7-------7--------------------------------------|



************************************

| /   slide up
| \   slide down
| h   hammer-on
| p   pull-off
| ~   vibrato
| +   harmonic
| x   Mute note
| b   Bend
| pb  Pre-bend
| br  Bend release
| pbr Pre-bend release
| brb Bend release bend

************************************
Добавлено: 28.07.2015
Другие материалы по этой песне:
  • Аккорды и текст

Страница создана 28.07.2015
http://primanota.ru/coldrain/no-escape-chords.htm
Привет, Гость.
Предлагаем пройти революционный курс по гитаре.
Подарок от PrimaNota.Ru, забирай!