PrimaNota.ru - самый крупный в мире бесплатный архив песенных текстов, аккордов, табулатур и нот


Coldrain - Runaway - таба, видео

Регистрация Запомнить меня
Войти через:  Facebook Google Twitter Vk Yandex Mail.ru

Coldrain - Runaway - таба, видео

Печатать
Просмотров: 106
Авторы музыки: Jacoby Shaddix, coldrain
Авторы текста: Jacoby Shaddix, Masato
Song: Runaway Ft. Jacoby Shaddix
Artist: Coldrain
Tuning: Half-step down Eb Ab Db Gb Bb Eb

Some parts like the intro, chorus lead, parts of the bridge and definitely the lead guitar in the solo-like 
part (which I think I probably simplified significantly) might not be 100% accurate. 

For both the chorus and bridge part 1, for each chord guitar 1 plays, a bar of guitar 2 is played (except 
at the end of the bridge part 1, where 2 chords for guitar 1 are played in 1 bar of guitar 2). 

I'd also recommend listening to the song for the rhythms as I probably don't have them perfect here. 
                                                                                                          

Intro Pt. 1 (00:10):
Guitar 1
Eb|---------------------------------------------------------------|
Bb|---------------------------------------------------------------|
Gb|---------------------------------------------------------------|
Db|---------------------------------------------------------------|
Ab|--12-12-12-----------7-7-7----------------12-12-12---12-12-12--|
Eb|--12-12-12-----------7-7-7----------------12-12-12---12-12-12--| 
|
|Guitar 2
Eb|--------------------------------------------|
Bb|----------10----------------7tr-8tr-5tr-7tr-|
Gb|----------x---9tr-10tr---14-x---x---x---x---|
Db|----------7---x---x------x--4tr-5tr-2tr-4tr-|
Ab|--------------7tr-8tr----12-----------------|
Eb|--------------------------------------------| X2 

Intro Pt. 2 (00:25):
Guitar 1
Eb|-------------------------------------------------------|
Bb|-------------------------------------------------------|
Gb|-------------------------------------------------------|
Db|----------------------------4p1-0-4--------------------|
Ab|---------------2p0-0-2---------------------3p2-0-3-----|
Eb|-8p7-0-8-0000----------0000---------0000-----------0000|
                                                               
Eb|---------------------------------------------------------|
Bb|---------------------------------------------------------|       
Gb|---------------------------------------------------------|      
Db|------------------------------4p1-0-4--------------------|      
Ab|-----------------2p0-0-2-----------------5tr-3tr-5tr-3tr-|      
Eb|---8p7-0-8-0000----------0000---------00-----------------|      

Eb|-------------------------------------------------------|
Bb|-------------------------------------------------------|
Gb|-------------------------------------------------------|
Db|----------------------------4p1-0-4--------------------|
Ab|---------------2p0-0-2---------------------3p2-0-3-----|
Eb|-8p7-0-8-0000----------0000---------0000-----------0000|

Eb|-------------------------------------------------------|
Bb|-------------------------------------------------------|
Gb|-------------------------------------------------------|
Db|----------------------------4p1-0-4--------------------|
Ab|---------------2p0-0-2-----------------5tr-3tr-5tr-6b*-|
Eb|-8p7-0-8-0000----------0000---------00-----------------|

Guitar 2 throughout (with wah or some sort of effect?):
Bb|--10--|

Verse 1 (00:40):
Eb|------------------------------------------------------|
Bb|------------------------------------------------------|
Gb|------------------------------------------------------|
Db|------------------------------------------------------|
Ab|--0-0-0-0--0---0-0---0--0-0--0-0-0-0-0--0---0-0--3--2-|
Eb|--0-0-0-0--0---0-0---0--0-0--0-0-0-0-0--0---0-0--3--2-| X2  
     - - - -  -   - -   -  - -  - - - - -  -   - -            
Pre-chorus 1 (Fuzz effect or low volume distortion) (00:55):
Eb|--------------------------------------------|---------------------------|
Bb|--------------------------------------------|---------------------------|
Gb|--------------------------------------------|---------------------------|
Db|--------------------------------------------|---------------------------|
Ab|--------------------------------------------|---------------------------|
Eb|--7p5-0-0--7p5--0-0-0-3-5-0-3-5-0-3-5-0-3-5-|--7p5-0-0-7p5--0-3-5-0-3-5-|

Chorus (01:03):
Guitar 1                   1.____ 2.____
Eb||-----------------------||-----|-----|
Bb||-----------------------||-----|-----|
Gb||--7------3------2------||--5--|-----|
Db||--7------3------2------||--5--|-----|
Ab||--5------1------0------||--3--|--0--|
Eb||-----------------------||-----|--0--|
|
|Guitar 2          
Eb|------------------|------------------|------------------|------------------|
Bb|-----16-13----13--|-----16-13----16--|-----16-13----13--|-----16-17-17-16--|
Gb|--14-------14-----|--14-------14-----|--14-------14-----|--14--------------|X2 
Db|------------------|------------------|------------------|------------------|
Ab|------------------|------------------|------------------|------------------|
Eb|------------------|------------------|------------------|------------------|

Pre-verse (01:18):
Eb|-------------------------------------------------------|
Bb|-------------------------------------------------------|
Gb|-------------------------------------------------------|
Db|----------------------------4p1-0-4--------------------|
Ab|---------------2p0-0-2---------------------3p2-0-3-----|
Eb|-8p7-0-8-0000----------0000---------0000-----------0000|

Eb|-------------------------------------------------------|
Bb|-------------------------------------------------------|
Gb|-------------------------------------------------------|
Db|----------------------------4p1-0-4--------------------|
Ab|---------------2p0-0-2-----------------5tr-3tr-5tr-6b*-|
Eb|-8p7-0-8-0000----------0000---------00-----------------|

Repeat  Verse 1 (01:25)

Repeat pre-chorus (01:40)

Repeat chorus (01:47)

Bridge Pt. 1 (02:02):
Guitar 1
Eb|--------------------------|--------------------------|
Bb|--------------------------|--------------------------|
Gb|--------------------------|--------------------------|
Db|--------------------------|--------------------------|
Ab|--(0)----3----8----7------|--0----3----8----10--5----|
Eb|--(0)----3----8----7------|--0----3----8----10--5----|
|
|Guitar 2 (very quick)
Eb||--17-13p0-12p0-10p0-13p0-12p0-10p0-|--15-13p0-12p0-10p0-12p0-8p0-10p0-||
Bb||-----------------------------------|----------------------------------||
Gb||-----------------------------------|----------------------------------||
Db||-----------------------------------|----------------------------------||
Ab||-----------------------------------|----------------------------------||
Eb||-----------------------------------|----------------------------------||

  1._________________________________________________ 2.___________________________________________
Eb|--13-12p0-10p0-8p0-10p0-8p0-5p0-|-10p0-12p0-13-15-|--13-12p0-10p0-8p0-10p0-----|-10-12-13-15hb-|
Bb|--------------------------------|-----------------|------------------------5-3-|---------------|
Gb|--------------------------------|-----------------|----------------------------|---------------|
Db|--------------------------------|-----------------|----------------------------|---------------|
Ab|--------------------------------|-----------------|----------------------------|---------------|
Eb|--------------------------------|-----------------|----------------------------|---------------|

Bridge Pt. 2 (02:17):
Eb|-----------|
Bb|-----------|
Gb|-----------|
Db|-----------|
Ab|--7--5--3--|X7 Start releasing palm mute from the fifth time
Eb|--7--5--3--|
     -  -  -

Bridge Pt. 3 (02:25):
Eb|---------------------|--------------------|
Bb|---------------------|--------------------|
Gb|---------------------|--------------------| X2 Only slide down on first time (only one guitar slides)
Db|---------------------|--------------------|    
Ab|--0-7-5--5--3-6--5-5-|--0-7-5--5--3-6--5\-|
Eb|--0-7-5--5--3-6--5-5-|--0-7-5--5--3-6--5\-|

Bridge Pt. 4 (02:39):                               1._________ 2.___________
Eb||------------------------------------------------||----------|-------------|
Bb||------------------------------------------------||----------|-------------|
Gb||------------------------------------------------||----------|-------------|
Db||------------------------------------------------||----------|--1-----5----|
Ab||--0-5-6x5p3--5x3-3-6-5----------5--3-6-5-x6p5-5-||--3-6-5-5-|--1-----5----|
Eb||--0-5-6x5p3--5x3-3-6-5--5p0-5p0-5--3-6-5-x6p5-5-||--3-6-5-5-|--1-----5----|

Repeat pre-chorus (1) (02:58)

Repeat chorus (03:06) 

Repeat intro pt. 2 (03:20) but end with 5tr 3tr 6b* instead

Outro (03:35):
Eb|-------------------------------|
Bb|---------10tr------------------|
Gb|---------x----9tr---10tr-------|
Db|---------7tr--x-----x----------|
Ab|--12-12-------7tr---8tr---0----|
Eb|--12-12-------------------0----|

Thanks for taking the time to check this out. Feedback and constructive criticism is always appreciated

****************************
Legend:
h: hammer-on 
p: pull-off  
tr: tremolo pick  
(h)b: (half) bend  
*: pinch harmonic  
-: palm mute
x: muted notes
Добавлено: 05.06.2016
Другие материалы по этой песне:
  • Аккорды и текст

Страница создана 05.06.2016
http://primanota.ru/coldrain/runaway-chords.htm
Привет, Гость.
Предлагаем пройти революционный курс по гитаре.
Подарок от PrimaNota.Ru, забирай!