PrimaNota.ru - самый крупный в мире бесплатный архив песенных текстов, аккордов, табулатур и нот


Cocteau Twins - When Mama Was Moth - аккорды и текст, таба, видео

Регистрация Запомнить меня
Войти через:  Facebook Google Twitter Vk Yandex Mail.ru

Cocteau Twins - When Mama Was Moth - аккорды и текст, таба, видео

Печатать
Просмотров: 185
When Mama Was Moth
Cocteau Twins
Intro - F#m G#m F#sus4 F#m G#m F#sus4
|-----|-----|------|-----|-----|-----|------|
|-----|-----|------|-----|-----|-----|------|
|-----|-----|------|-----|-----|-----|------|
|-----|-----|------|-----|-----|-----|------|
|---0-|---2-|---2--|-(2)-|---0-|---2-|---2--|
|-2---|-4---|-2----|-(2)-|-2---|-4---|-2----|
 

Riff 1 - F#m G#m F#sus4
|-----------------|-----------------|-----------------|
|-----------------|-----------------|-----------------|
|-----------------|-----------------|-----------------|
|-4-6-7-6-4-0-4-3-|-4-6-7-6-4-0-4-3-|-4-6-7-6-4-0-4-3-|
|---0-------------|---2-------------|---2-------------|
|-2---------------|-4---------------|-2---------------|

F#sus4
|-------------------|
|-------------------|
|-------------------|
|--4--6-7-6-4-0-4-3-|
|-(2)---------------|
|-(2)---------------|

Verse - (with riff 1)

F#sus4 |F#m |G#m |F#sus4
Sunburst and|snowblind a|chill of fear running down my|back

|F#sus4 |F#m |
When|Mama was queen and a|worker bee chills|

G#m |F#sus4 |
all start screaming ribbed and|veined |

Bridge - F#sus4 |F#m |G#m |F#sus4 (with riff 1)

Verse - |F#sus4 |F#m |G#m |F#sus4
The|sunburst and the|snowblind a|chill of fear running down my|back

|F#sus4 |F#m |
When|Mama was moth I took|bulbform a|

G#m |F#sus4 |
body electric writhe in|vain |

Bridge - F#sus4 (4 bars)

Outro - F#sus4 |
(x6) Body electric |
(body electric)|
Добавлено: 19.08.2013
Другие материалы по этой песне:
  • Аккорды и текст

Страница создана 28.03.2012
http://primanota.ru/cocteau-twins/when-mama-was-moth-chords.htm
Привет, Гость.
Предлагаем пройти революционный курс по гитаре.
Подарок от PrimaNota.Ru, забирай!