PrimaNota.ru - самый крупный в мире бесплатный архив песенных текстов, аккордов, табулатур и нот


Cocteau Twins - Lorelei - текст песни, бас-таба, видео

Регистрация Запомнить меня
Войти через:  Facebook Google Twitter Vk Yandex Mail.ru

Cocteau Twins - Lorelei - текст песни, бас-таба, видео

Печатать
Просмотров: 49
-------------------------------------------------------------------------------
                             LORELEI - Cocteau Twins
-------------------------------------------------------------------------------
Tabbed by: rugtixmii
E-mail: rugtimxii@comcast.net

Tuning: Standard

Can't look out, can't look in, can't kiss right
Get yourself, get right
Lift up your toes, in my mouth
We make love and we can go
And we can go and we can go
We're covered by the sacred fire
But when you cut me, you cut to the bone
(x2)

Without a doubt (x15)

We're covered by the sacred fire
But when you cut me, you cut to the bone

Can't look in, guilty boy, guilty girl
'Cause you're both cursed
Lift up your toes, in my mouth
We make love and we can go
(x2)

G|----------------------------------------------------------------------|
D|----------------------------------------------------------------------|
A|--8--8--8--8--8--8--8--8--8--8--8--7--7--7--7--7--7--7--7--7--7--7----|
E|----------------------------------------------------------------------|

G|----------------------------------------------------------------------|
D|-----------------------------------7--7--7--7--7--7--7--7--7--7--7----|
A|--8--8--8--8--8--8--8--8--8--8--8-------------------------------------|
E|----------------------------------------------------------------------|

G|----------------------------------------------------------------------|
D|----------------------------------------------------------------------|
A|--8--8--8--8--8--8--8--8--8--8--8--8--8--8--8--8--8--8--8--8--8--8----|
E|----------------------------------------------------------------------|

G|----------------------------------------------------------------------|
D|----------------------------------------------------------------------|
A|--10-10-10-10-10-10-10-10-10-10/12-10-10-10-10-10-10-10-10-10-10-10---|
E|----------------------------------------------------------------------|

G|----------------------------------------------------------------------|
D|----------------------------------------------------------------------|
A|--10-10-10-10-10-10-10-10-10-10/12-10-10-10-10-10-10-10-10-10-10-10---|
E|----------------------------------------------------------------------|

G|----------------------------------------------------------------------|
D|----------------------------------------------------------------------|
A|--10-10-10-10-10-10-10-10-10-10/12-10-10-10-10-10-10-10-10-10-10-10---|
E|----------------------------------------------------------------------|

G|----------------------------------------------------------------------|
D|----------------------------------------------------------------------|
A|--10-10-10-10-10-10-10-10-10-10/12-10-10-10-10--7--7--7--7--7--8--8--7|
E|----------------------------------------------------------------------|

G|----------------------------------------------------------------------|
D|--------------------------------10------------------------------------|
A|--10-10-10-10-10-10-10-10-10-12----10-10-10-10-10-10-10-10-10-10-10---|
E|----------------------------------------------------------------------|

G|----------------------------------------------------------------------|
D|--------------------------------10------------------------------------|
A|--10-10-10-10-10-10-10-10-10-12----10-10-10-10-10-10-10-10-10-10-10---|
E|----------------------------------------------------------------------|

G|----------------------------------------------------------------------|
D|--------------------------------10------------------------------------|
A|--10-10-10-10-10-10-10-10-10-12----10-10-10-10-10-10-10-10-10-10-10---|
E|----------------------------------------------------------------------|

G|----------------------------------------------------------------------|
D|--------------------------------10------------------------------------|
A|--10-10-10-10-10-10-10-10-10-12----10-10-10-10--7--7--7--7--7--8--8--7|
E|----------------------------------------------------------------------|

G|----------------------------------------------------------------------|
D|----------------------------------------------------------------------|
A|--8--8--8--8--8--8--8--8--8--8--8--7--7--7--7--7--7--7--7--7--7--7----|
E|----------------------------------------------------------------------|

G|----------------------------------------------------------------------|
D|-----------------------------------7--7--7--7--7--7--7--7--7--7--7----|
A|--8--8--8--8--8--8--8--8--8--8--8-------------------------------------|
E|----------------------------------------------------------------------|

G|----------------------------------------------------------------------|
D|----------------------------------------------------------------------|
A|--8--8--8--8--8--8--8--8--8--8--8--8--8--8--8--8--8--8--8--8--8--8----|
E|----------------------------------------------------------------------|

G|----------------------------------------------------------------------|
D|----------------------------------------------------------------------|
A|--8--8--8--8--8--7--7--7--7--7--8--8--8--8--8--7--7--7--7--7----------|
E|----------------------------------------------------------------------|

G|----------------------------------------------------------------------|
D|----------------------------------------------------------------------|
A|--8--8--8--8--8--7--7--7--7--7--8--8--8--8--8--7--7--7--7--7----------|
E|----------------------------------------------------------------------|

G|----------------------------------------------------------------------|
D|----------------------------------------------------------------------|
A|--8--8--8--8--8--7--7--7--7--7--8--8--8--8--8--7--7--7--7--7----------|
E|----------------------------------------------------------------------|

G|----------------------------------------------------------------------|
D|----------------------------------------------------------------------|
A|--8--8--8--8--8--7--7--7--7--7--8--8--8--8--8--7--7--7--7--7----------|
E|----------------------------------------------------------------------|

G|----------------------------------------------------------------------|
D|----------------------------------------------------------------------|
A|--8--8--8--8--8--7--7--7--7--7--8--8--8--8--8--7--7--7--7--7----------|
E|----------------------------------------------------------------------|

G|----------------------------------------------------------------------|
D|----------------------------------------------------------------------|
A|--8--8--8--8--8--7--7--7--7--7--8--8--8--8--8--7--7--7--7--7----------|
E|----------------------------------------------------------------------|

G|----------------------------------------------------------------------|
D|----------------------------------------------------------------------|
A|--8--8--8--8--8--8--8--8--8--8--8--8--8--8--8--8--8--8--8--8----------|
E|----------------------------------------------------------------------|

G|----------------------------------------------------------------------|
D|--------------------------------10-------------------------------10---|
A|--10-10-10-10-10-10-10-10-10-12----10-10-10-10-10-10-10-10-10-12------|
E|----------------------------------------------------------------------|

G|----------------------------------------------------------------------|
D|--------------------------------10-------------------------------10---|
A|--10-10-10-10-10-10-10-10-10-12----10-10-10-10-10-10-10-10-10-12------|
E|----------------------------------------------------------------------|

G|----------------------------------------------------------------------|
D|--------------------------------10-------------------------------10---|
A|--10-10-10-10-10-10-10-10-10-12----10-10-10-10-10-10-10-10-10-12------|
E|----------------------------------------------------------------------|

G|----------------------------------------------------------------------|
D|--------------------------------10------------------------------------|
A|--10-10-10-10-10-10-10-10-10-12----10-10-10-10--7--7--7--7--7--8--8--7|
E|----------------------------------------------------------------------|

G|----------------------------------------------------------------------|
D|--------------------------------10-------------------------------10---|
A|--10-10-10-10-10-10-10-10-10-12----10-10-10-10-10-10-10-10-10-12------|
E|----------------------------------------------------------------------|

G|----------------------------------------------------------------------|
D|--------------------------------10------------------------------------|
A|--10-10-10-10-10-10-10-10-10-12----10-10-10-10--7--7--7--7--7--8--8--7|
E|----------------------------------------------------------------------|

G|----------------------------------------------------------------------|
D|--------------------------------10-------------------------------10---|
A|--10-10-10-10-10-10-10-10-10-12----10-10-10-10-10-10-10-10-10-12------|
E|----------------------------------------------------------------------|

G|----------------------------------------------------------------------|
D|--------------------------------10------------------------------------|
A|--10-10-10-10-10-10-10-10-10-12----10-10-10-10--7--7--7--7--7--8--8--7|
E|----------------------------------------------------------------------|


| /  slide up
| \  slide down
| h  hammer-on
| p  pull-off
| ~  vibrato
| +  harmonic
| x  Mute note
===============================================================================
Добавлено: 29.03.2016
Другие материалы по этой песне:
  • Аккорды и текст

Страница создана 25.02.2014
http://primanota.ru/cocteau-twins/lorelei-chords.htm
Привет, Гость.
Предлагаем пройти революционный курс по гитаре.
Подарок от PrimaNota.Ru, забирай!