PrimaNota.ru - самый крупный в мире бесплатный архив песенных текстов, аккордов, табулатур и нот


Cocteau Twins - Rococo - таба, видео

Регистрация Запомнить меня
Войти через:  Facebook Google Twitter Vk Yandex Mail.ru

Cocteau Twins - Rococo - таба, видео

Печатать
Просмотров: 98


Tabbed by: duhraney@gmail.com
Email: duhraney@gmail.com

Tuning: standard

   -strike the note after each slide (listen to the song for example)
   -follow the beats on the bottom

   Intro:
e|---------------------------------------------------------------------------|
B|---------------------------------------------------------------------------|
G|---------------------------------------------------------------------------|
D|6-66666-6/4/2-22222-222/6-66666-6/4/7-77777-7777---------------------------|
A|---------------------------------------------------------------------------|
E|---------------------------------------------------------------------------|
  123456123456123456123456123456123456123456123456


e|---------------------------------------------------------------------------|
B|---------------------------------------------------------------------------|
G|---------------------------------------------------------------------------|
D|6-66666-6/4/2-22222-222/6-66666-6/4/7-77777-777----------------------------|
A|---------------------------------------------------------------------------|
E|---------------------------------------------------------------------------|
  123456123456123456123456123456123456123456123456


e|---------------------------------------------------------------------------|
B|---------------------------------------------------------------------------|
G|---------------------------------------------------------------------------|
D|--------------------------------------77776-4666---------------------------|
A|4-44-44-44440-00-00-00004-44-44-44440--------------------------------------|
E|---------------------------------------------------------------------------|
  123456123456123456123456123456123456123456123456

  after the intro play this 2x:

  E      G      E      G      E      G      E      G
e|000000|333333|000000|333333|000000|333333|000000|333333|-------------------|
B|000000|000000|000000|000000|000000|000000|000000|000000|-------------------|
G|111111|000000|111111|000000|111111|000000|111111|000000|-------------------|
D|222222|000000|222222|000000|222222|000000|222222|000000|-------------------|
A|222222|222222|222222|222222|222222|222222|222222|222222|-------------------|
E|000000|333333|000000|333333|000000|333333|000000|333333|-------------------|

  Then:

  A      B  C#  G#            A      B  C#  G#     C# B
e|000000|2--4--|------|------|000000|2--4--|------|4--2--|-------------------|
B|333333|4--6--|444444|444444|333333|4--6--|444444|6--4--|-------------------|
G|333333|4--6--|555555|555555|333333|4--6--|555555|6--4--|-------------------|
D|333333|------|666666|666666|333333|------|666666|------|-------------------|
A|000000|------|------|------|000000|------|------|------|-------------------|
E|------|------|------|------|------|------|------|------|-------------------|



  E      G      E      G      E      G      E      G
e|000000|333333|000000|333333|000000|333333|000000|333333|-------------------|
B|000000|000000|000000|000000|000000|000000|000000|000000|-------------------|
G|111111|000000|111111|000000|111111|000000|111111|000000|-------------------|
D|222222|000000|222222|000000|222222|000000|222222|000000|-------------------|
A|222222|222222|222222|222222|222222|222222|222222|222222|-------------------|
E|000000|333333|000000|333333|000000|333333|000000|333333|-------------------|



  A      B  C#  G#            A      B  C#  G#     G#
e|000000|2--4--|------|------|000000|2--4--|------|------|-------------------|
B|333333|4--6--|444444|444444|333333|4--6--|444444|444444|-------------------|
G|333333|4--6--|555555|555555|333333|4--6--|555555|555555|-------------------|
D|333333|------|666666|666666|333333|------|666666|666666|-------------------|
A|000000|------|------|------|000000|------|------|------|-------------------|
E|------|------|------|------|------|------|------|------|-------------------|


  A      B  C#  G#            F#
e|000000|2--4--|------|------|------|------|------|------|-------------------|
B|333333|4--6--|444444|444444|222222|222222|222222|222222|-------------------|
G|333333|4--6--|555555|555555|333333|333333|333333|333333|-------------------|
D|333333|------|666666|666666|444444|444444|444444|444444|-------------------|
A|000000|------|------|------|------|------|------|------|-------------------|
E|------|------|------|------|------|------|------|------|-------------------|

  Outro 2x:

  E      G      E      G      E      G      E      G
e|000000|333333|000000|333333|000000|333333|000000|333333|-------------------|
B|000000|000000|000000|000000|000000|000000|000000|000000|-------------------|
G|111111|000000|111111|000000|111111|000000|111111|000000|-------------------|
D|222222|000000|222222|000000|222222|000000|222222|000000|-------------------|
A|222222|222222|222222|222222|222222|222222|222222|222222|-------------------|
E|000000|333333|000000|333333|000000|333333|000000|333333|-------------------|

towards the end a guitar plays this repeatedly in the background:

e|---------------------------------------------------------------------------|
B|---9----9----9-------------------------------------------------------------|
G|11---11---11---11-9--------------------------------------------------------|
D|---------------------------------------------------------------------------|
A|---------------------------------------------------------------------------|
E|---------------------------------------------------------------------------|






| /  slide up
|   slide down
| h  hammer-on
| p  pull-off
| ~  vibrato
| +  harmonic
| x  Mute note

Добавлено: 24.12.2013
Другие материалы по этой песне:
  • Аккорды и текст

Страница создана 24.12.2013
http://primanota.ru/cocteau-twins/rococo-chords.htm
Привет, Гость.
Предлагаем пройти революционный курс по гитаре.
Подарок от PrimaNota.Ru, забирай!