PrimaNota.ru - самый крупный в мире бесплатный архив песенных текстов, аккордов, табулатур и нот


Cocteau Twins - Pandora - аккорды и текст, таба, видео

Регистрация Запомнить меня
Войти через:  Facebook Google Twitter Vk Yandex Mail.ru

Cocteau Twins - Pandora - аккорды и текст, таба, видео

Печатать
Просмотров: 219
Pandora
Cocteau Twins
Intro/verse (riff 1):
 
Harm---:soft Gtr I
C
e ---------------(12)------------
B ---------------(12)------------
G ---------------(12)------------ Play all the time
D -------------------------------
A -------------------------------
E -------------------------------

C
e ------------------12-------------
B ------------------12-------------
G ------------------12-------------
D -----------------14--------------
A ----------------15---------------
E ---------------15----------------


Em
e ---------------12--------------
B ---------------12--------------
G ---------------12--------------
D -------------14----------------
A ------------14-----------------
E -----------12------------------

Gtr II Chords
C Em
e-------0---------------0-------------|
B-------0---------------0-------------|
G-------0---------------0-------------|
D-----2---------------2---------------|
A----3----------------2---------------|
E---3-----------------0---------------|



Verse:

C , Em

C , Em
Добавлено: 29.11.2013
Другие материалы по этой песне:
  • Аккорды и текст

Страница создана 18.03.2012
http://primanota.ru/cocteau-twins/pandora-chords.htm
Привет, Гость.
Предлагаем пройти революционный курс по гитаре.
Подарок от PrimaNota.Ru, забирай!