PrimaNota.ru - самый крупный в мире бесплатный архив песенных текстов, аккордов, табулатур и нот


Clint Mansell - Lux Aeterna - таба, видео

Регистрация Запомнить меня
Войти через:  Facebook Google Twitter Vk Yandex Mail.ru

Clint Mansell - Lux Aeterna - таба, видео

Печатать
Просмотров: 533
Авторы музыки: Clint Mansell

----------------------------------------------------------------------------
                            Lux Aeterna - Band Name
----------------------------------------------------------------------------
Tabbed by: Skyler Hill
Email:

Tuning: Standard

e|--------------------------------------------------------------------------|
B|--------------------------------------------------------------------------|
G|--------------------------------------------------------------------------|
D|--------------------------------------------------------------------------|
A|---10---------------------------------------------------------------------|
E|-------11-10----—---------------------------------------------------------| repeat 2x

e|--------------------------------------------------------------------------|
B|---11-10-8---11-10-8---11-10-8---8----------------------------------------|
G|-----------7---------7---------7---11-10-11-------------------------------|
D|--------------------------------------------------------------------------|
A|--------------------------------------------------------------------------|
E|--------------------------------------------------------------------------|

e|--------------------------------------------------------------------------|
B|---11-10-8---11-10-8---11-10-8---8----------------------------------------|
G|-----------7---------7---------7---11-10-8--------------------------------|
D|--------------------------------------------------------------------------|
A|--------------------------------------------------------------------------|
E|--------------------------------------------------------------------------|
 repeat 3x


e|-------------------------------------------------------------------------|
B|--11-8--11-8-11-8--11-8-11-8--11-8-11-8-11-8-11-8-11-8--11-10--11-10-11--|
G|-------------------------------------------------------------------------|
D|-------------------------------------------------------------------------|
A|-------------------------------------------------------------------------|
E|-------------------------------------------------------------------------|

e|-------------------------------------------------------------------------|
B|-11--11-10-11-10--11-10-11-10-11-10-11-10-11-10--------------------------|
G|-------------------------------------------------------------------------|
D|-------------------------------------------------------------------------|
A|-------------------------------------------------------------------------|
E|-------------------------------------------------------------------------|
 repeat 2x

e|--------------------------------------------------------------------------|
B|-11-11-11-10-10-10-8--11-11-11-10-10-10-8--11-11-11-10-10-10-8--8-8-8-10--|
G|--------------------------------------------------------------------------|
D|--------------------------------------------------------------------------|
A|--------------------------------------------------------------------------|
E|--------------------------------------------------------------------------|


e|--------------------------------------------------------------------------|
B|-10-10-10-11-11-11--------------------------------------------------------|
G|--------------------------------------------------------------------------|
D|--------------------------------------------------------------------------|
A|--------------------------------------------------------------------------|
E|--------------------------------------------------------------------------|
 repeat 2x


e|--------------------------------------------------------------------------|
B|--8--10-11--8-------------------------------------------------------------|
G|--------------10-8--------------------------------------------------------|
D|--------------------------------------------------------------------------|
A|--------------------------------------------------------------------------|
E|--------------------------------------------------------------------------|


e|-------------------------------------------------------------------------|
B|--11-8--11-8-11-8--11-8-11-8--11-8-11-8-11-8-11-8-11-8--11-10--11-10-11--|
G|-------------------------------------------------------------------------|
D|-------------------------------------------------------------------------|
A|-------------------------------------------------------------------------|
E|-------------------------------------------------------------------------|

e|--------------------------------------------------------------------------|
B|-11--11-10-11-10--11-10-11-10-11-10-11-10-11-10--11-8---------------------|
G|--------------------------------------------------------------------------|
D|--------------------------------------------------------------------------|
A|--------------------------------------------------------------------------|
E|--------------------------------------------------------------------------|

e|--------------------------------------------------------------------------|
B|---11-10-8---11-10-8---11-10-8---8----------------------------------------|
G|-----------7---------7---------7---11-10-11-------------------------------|
D|--------------------------------------------------------------------------|
A|--------------------------------------------------------------------------|
E|--------------------------------------------------------------------------|

e|--------------------------------------------------------------------------|
B|---11-10-8---11-10-8---11-10-8---8----------------------------------------|
G|-----------7---------7---------7---11-10-8--------------------------------|
D|--------------------------------------------------------------------------|
A|--------------------------------------------------------------------------|
E|--------------------------------------------------------------------------|
 repeat 1 time

e|--------------------------------------------------------------------------|
B|--8--10-11--8-------------------------------------------------------------|
G|---------------10-8-------------------------------------------------------|
D|--------------------------------------------------------------------------|
A|--------------------------------------------------------------------------|
E|--------------------------------------------------------------------------|repeat 2x


e|--------------------------------------------------------------------------|
B|--11-8--11-8-11-8--11-8-11-8--11-8-11-8-11-8-11-8-11-8--11-10--11-10-11---|
G|--------------------------------------------------------------------------|
D|--------------------------------------------------------------------------|
A|--------------------------------------------------------------------------|
E|--------------------------------------------------------------------------|

e|--------------------------------------------------------------------------|
B|-11--11-10-11-10--11-10-11-10-11-10-11-10-11-10-11-8----------------------|
G|--------------------------------------------------------------------------|
D|--------------------------------------------------------------------------|
A|--------------------------------------------------------------------------|
E|--------------------------------------------------------------------------|


| / slide up
| \ slide down
| h hammer-on
| p pull-off
| ~ vibrato
| + harmonic
| x Mute note
===============================================================================
Добавлено: 23.04.2012
Другие материалы по этой песне:

Страница создана 31.03.2012
http://primanota.ru/clint-mansell/lux-aeterna-chords.htm
Привет, Гость.
Предлагаем пройти революционный курс по гитаре.
Подарок от PrimaNota.Ru, забирай!