PrimaNota.ru - самый крупный в мире бесплатный архив песенных текстов, аккордов, табулатур и нот


Clint Mansell - Dead Reckoning - таба, видео

Регистрация Запомнить меня
Войти через:  Facebook Google Twitter Vk Yandex Mail.ru

Clint Mansell - Dead Reckoning - таба, видео

Печатать
Просмотров: 338
Intro
-------------------------------------------------------|
-------------------------------------------------------|
-6----6----6----6--------------------------------------|
-8----8----8----8-------13-11-10-----------------------|
-8----8----8----8--11-13---------13--------------------|
-6----6----6----6--------------------------------------|

Riff 1 (Rhythm isn't hard to figure out)
-------------------------------------------------------|
-------------------------------------------------------|
18--15-------------------------------------------------|
-------------------------------------------------------|
-------------------------------------------------------|
-------------------------------------------------------|

Solo
--------------13--16--18--20---------------------------|
-------------------------------------------------------|
10-13-15-17---10--13--15--17---------------------------|
-------------------------------------------------------|
-------------------------------------------------------|
-------------------------------------------------------|

Outro
-------------------------------------------------------|
-------------------------------------------------------|
---6---------------------------------------------------|
---8------------13--11--10-----------------------------|
---8----11--13--------------13-------------------------|
---6-----------------------------6---------------------|
Добавлено: 05.07.2012
Другие материалы по этой песне:
  • Аккорды и текст

Страница создана 12.05.2012
http://primanota.ru/clint-mansell/dead-reckoning-chords.htm
Привет, Гость.
Предлагаем пройти революционный курс по гитаре.
Подарок от PrimaNota.Ru, забирай!