PrimaNota.ru - самый крупный в мире бесплатный архив песенных текстов, аккордов, табулатур и нот


Clint Mansell - Together We Will Live Forever - таба, видео

Регистрация Запомнить меня
Войти через:  Facebook Google Twitter Vk Yandex Mail.ru

Clint Mansell - Together We Will Live Forever - таба, видео

Печатать
Просмотров: 923
Уроки эстрадного вокала в Санкт-Петербурге
Авторы музыки: Clint Mansell

Together We Will Live Forever
   Clint Mansell, The Fountain Soundtrack

Tab by Michael Tyson 
---------------------------------------------------------------

Tune low and high E strings down to D for this song (double drop D).
Play it nice and slowly, watch you don't speed up.

                                PART A:
D |---------------------------------------0------------------------------|
B |-------------------3---3-----------------1---1---1---1----------------|
G |-3--3--3--3--3--3----------------0------------------------------------|
D |--------------3--3-------------1-----1--------------------------------|
A |-----------------------------1----------------------------------------|
D |-5-----------3-------------1------------------------------------------|

                                A repeat
D |---------------------------------------0------------------------------|
B |-------------------3---3-----------------1---1---1---1----------------|
G |-3--3--3--3--3--3----------------0------------------------------------|
D |--------------3--3-------------1-----1--------------------------------|
A |-----------------------------1----------------------------------------|
D |-5-----------3-------------1------------------------------------------|

                                A repeat
D |---------------------------------------0------------------------------|
B |-------------------3---3-----------------1---1---1---1----------------|
G |-3--3--3--3--3--3----------------0-----------0------------------------|
D |--------------3--3---3---------1-----1--------------------------------|
A |-----------------------------1----------------------------------------|
D |-5-----------3-------------1---------------1--------------------------|

                                A repeat
D |---------------------------------------0------------------------------|
B |-------------------3---3-----------------1---1---1---1----------------|
G |-3--3--3--3--3--3----------------0-----0-----0------------------------|
D |--------------3--3-------------1-----1--------------------------------|
A |--5--5--5--5---------5-------1----------------------------------------|
D |-5-----------3-------------1---------------1--------------------------|


                                PART B:
D |-5-----8-----7----------------------5-----8-----7---------------------|
B |-----------------------------3---3------------------------3-----------|
G |---7-------7---7--------3-------------7-------7---7----------5--5-----|
D |--------------------------3-------------5---5----------5--------------|
A |---------5-----------5--------------6---------------------------------|
D |-5----------------3---------------------------------------------------|

                             B version 2:
D |-5-----8-----7-----------------------------------0--------------------|
B |-----------------------------3---3-----------------1---1---1---1------|
G |---7-------7---7--------3------------------0--------------------------|
D |-----5--------------------3--------------1-----1----------------------|
A |---------5-----------5-----------------1------------------------------|
D |-5----------------3------------------1---------------1----------------|

                           B version 2 repeat
D |-5-----8-----7-----------------------------------0--------------------|
B |-----------------------------3---3-----------------1---1---1---1------|
G |---7-------7---7--------3------------------0--------------------------|
D |-----5--------------------3----3---------1-----1----------------------|
A |---------5-----------5-----------------1------------------------------|
D |-5----------------3------------------1---------------1----------------|

                             B version 3:
D |-5-----8-----7-----------------------5-----8-----7--------------------|
B |-----------------------------3---3------------------------------------|
G |-------7-----5----------3------------------7-7----------------5-------|
D |-8---8-----8--------------3----3-----8---8----------------------------|
A |---5-----5-----5-----5---------------6-6------------------------------|
D |-5----------------3---------------------------------------------------|


                                PART C:
D |-5-----------3------------0-----------0----1---0----------------------|
B |-3-----------3------------1-----------------------1-------------------|
G |-3-----------3------------0-----------3-------------------------------|
D |-5--5--5--5--3--3--3--3---1--1--1--1--3--0---0---0--------------------|
A |----------------------------------------------------------------------|
D |-5-----------3------------1-----------0-------------------------------|

D |--------------------------0-----------0----1---0----------------------|
B |-3-----------3------------1-----------------------1-------------------|
G |-3-----3--3--3-----3--3---0-----0--0--3-------------------------------|
D |-5--5--------3--3--3--3---1--1--1--1--3--0---0---0--------------------|
A |-5-----------3--------------------------------------------------------|
D |-5-----------3------------1-----------0-------------------------------|

                                 PART A:
D |---------------------------------------0------------------------------|
B |-------------------3---3-----------------1---1---1---1----------------|
G |-3--3--3--3--3--3----------------0------------------------------------|
D |--------------3--3-------------1-----1--------------------------------|
A |-----------------------------1----------------------------------------|
D |-5-----------3-------------1---------------1--------------------------|

                                A repeat
D |---------------------------------------0------------------------------|
B |-------------------3---3-----------------1---1---1---1----------------|
G |-3--3--3--3--3--3----------------0-----0-----0------------------------|
D |--------------3--3-------------1-----1--------------------------------|
A |--5--5--5--5---------5-------1----------------------------------------|
D |-5-----------3-------------1---------------1--------------------------|

                                PART B:
D |-5-----8-----7----------------------5-----8-----7---------------------|
B |-----------------------------3---3------------------------3-----------|
G |---7-------7---7--------3-------------7-------7---7----------5--5-----|
D |--------------------------3-------------5---5----------5--------------|
A |---------5-----------5--------------6---------------------------------|
D |-5----------------3---------------------------------------------------|

                          PART B + Lead in to D
D |-5-----8-----7----------------------5-----8-----7---------------------|
B |-----------------------------3---3------------------------------------|
G |---7-------7---7--------3-------------7-------7---7---2-3-2-3-2-3-2-3-|
D |--------------------------3-------------5---5-------------------------|
A |---------5-----------5--------------6-------------------------1---1---|
D |-5----------------3-------------------------------------------3---3---|

                                PART D:
D |-------------------------0-----------0-----------------3--3--3-3--5---|
B |-3--3--3-3--4--3---------1--1--1-1---------1-----------3--------------|
G |-3---3----3---------3----0-----------------3--3--2--0--3--------------|
D |-5------------------3----1---------1-------3--3--------5---5----5-----|
A |--5---------------5---------------------------------------------------|
D |-5-----------3-----------1-------------0--------0------5--------------|

D |---3----------0-1--------0--------------------------------------------|
B |-------4-----------1--1----1------------------------------------------|
G |---------3--2------0--0-------2-3-2-3-2-3-2-3-------------------------|
D |-----3----------------------------------------------------------------|
A |---5-------------1--------------------1---1---------------------------|
D |-3--------------1---------------------3---3---------------------------|

                             D version 2:
D |---------------------7---------------0----------0------3---3---3-3--5-|
B |-3--3--3-3--4--3---3-----1---1---1-1-----1-------------------3--------|
G |----3-3----------3-------------0------------0-3---2-0-----------------|
D |---------------3-------------1---------------------------5------------|
A |--5------------------------1------------------------------------------|
D |-5-----------3-----------1-------------1---------------5--------------|

D |---3-------3----------------0-----------------------------------------|
B |-------3-4---3--1-----1---1---1--2--3--2--3--2------------------------|
G |-----3------------------0---------------------------------------------|
D |--------------------------------------------------1-------------------|
A |-------------------1----------------3----------0----0-----------------|
D |-3--------------1----------------3------------------------------------|

                              Part A + repeat
D |---------------------------------------0------------------------------|
B |-------------------3---3-----------------1----------------------------|
G |-3--3--3--3--3--3----------------0------------------------------------|
D |--------------3--3-------------1-----1---------0----------------------|
A |--------5------------5-------1-------------------3-------1------------|
D |-5-----------3-------------1-----------------5-------5----------------|

D |---------------------------------------0------------------------------|
B |-------------------3---3-----------------1---1---1---1----------------|
G |-3--3--3--3--3--3----------------0------------------------------------|
D |--------------3--3-------------1-----1--------------------------------|
A |--5------------------5-------1----------------------------------------|
D |-5-----------3-------------1---------------1--------------------------|

                                Part C
D |-5-----------3------------0-----------0----1---0----------------------|
B |-3-----------3------------1-----------------------1-------------------|
G |-3-----------3------------0-----------3-------------------------------|
D |-5--5--5--5--3--3--3--3---1--1--1--1--3--0---0---0--------------------|
A |----------------------------------------------------------------------|
D |-5-----------3------------1-----------0-------------------------------|

D |--------------------------0-----------0----1---0----------------------|
B |-3-----------3------------1-----------------------1-------------------|
G |-3-----------3-----3--3---0-----0--0--3-------------------------------|
D |-5--5--5--5--3--3--3--3---1--1--1--1--3--0---0---0--------------------|
A |-5-----------3--------------------------------------------------------|
D |-5-----------3------------1-----------0-------------------------------|

D |----------------------------------------------------------------------|
B |----------------------------------------------------------------------|
G |----------------------------------------------------------------------|
D |----------------------------------------------------------------------|
A |----------------------------------------------------------------------|
D |-5--------------------------------------------------------------------|
Добавлено: 28.05.2012
Другие материалы по этой песне:

Страница создана 10.05.2012
http://primanota.ru/clint-mansell/together-we-will-live-forever-chords.htm
Привет, Гость.
Предлагаем пройти революционный курс по гитаре.
Подарок от PrimaNota.Ru, забирай!