PrimaNota.ru - самый крупный в мире бесплатный архив песенных текстов, аккордов, табулатур и нот


Clint Mansell - Ghosts Falling - таба, видео

Регистрация Запомнить меня
Войти через:  Facebook Google Twitter Vk Yandex Mail.ru

Clint Mansell - Ghosts Falling - таба, видео

Печатать
Просмотров: 205
Song: Ghosts Falling
Composer: Clint Mansell
Soundtrack: Requiem for a Dream
Tuning: Drop D

Cello
Intro
|-----------------------------------------------------------------| 
|-----------------------------------------------------------------|
|-----------------------------------------------------------------|
|-----------------------------------------------------------------| 
|-----------------------------------------------------------------|
|-2-----------0---2-----------0---2-----------0---5---------------|


Swell (0:11)
Violin 
|-10~-------------10~-------------10~-------------10~-------------| 
|-x---------------x---------------x---------------x---------------|
|-7~--------------7~--------------7~--------------7~--------------|
|-----------------------------------------------------------------| 
|-----------------------------------------------------------------|
|-----------------------------------------------------------------|

Cello 
|-----------------------------------------------------------------| 
|-----------------------------------------------------------------|
|-----------------------------------------------------------------|
|-----------------------------------------------------------------| 
|-----------------------------------------------------------------|
|-2---0---2---0---5---0---5---0---2---0---2---0---5---0---5---0---|

Cello II
|-----------------------------------------------------------------| 
|-----------------------------------------------------------------|
|-----------------------------------------------------------------|
|-----------------------------------------------------------------| 
|---------------------------------5---------------0---------------|
|-0---------------5-----------------------------------------------|


Main Riff 2x
Violin (0:22)
2x
|-----------------------------------------------------------------| 
|-----------------------------------------------------------------|
|-4h5-4-------4h5-4-------4h5-4---4h5-4-------4h5-4-------4h5-4---|
|-----------------------------------------------------------------| 
|-----------------------------------------------------------------|
|-----------------------------------------------------------------|

Violin II
|-------------------------10p8p7--------------------------10p8p7--| 
|-----------------------------------------------------------------|
|-----------------------------------------------------------------|
|-----------------------------------------------------------------| 
|-----------------------------------------------------------------|
|-----------------------------------------------------------------|

|-------------------------10p8p7--------------------------5-------| 
|-----------------------------------------------------------------|
|-----------------------------------------------------------------|
|-----------------------------------------------------------------| 
|-----------------------------------------------------------------|
|-----------------------------------------------------------------|

Rhythm Violin
2x
|-----------------------------------------------------------------| 
|-----------------------------------------------------------------|
|-----------------------------------------------------------------|
|-0000000-----0-0000----------0000000000000---0-0000----------0000| 
|-----------------------------------------------------------------|
|-----------------------------------------------------------------|

Cello
|-----------------------------------------------------------------| 
|-----------------------------------------------------------------|
|-----------------------------------------------------------------|
|-----------------------------------------------------------------| 
|-----------------------------------------------------------------|
|-2-------0-------5-------0-------2-------0-------5--------0------|


Swell II
Keyboard (0:44)
|-----------------------------------------------------------------| 
|-10----------12--10----------8---10----------12--10----------8---|
|-----------------------------------------------------------------|
|-----------------------------------------------------------------| 
|-----------------------------------------------------------------|
|-----------------------------------------------------------------|

|-----------------------------12~---------------------------------| 
|-10----------12--10----------------------------------------------|
|-----------------------------------------------------------------|
|-----------------------------------------------------------------| 
|-----------------------------------------------------------------|
|-----------------------------------------------------------------|

Cello 
|-----------------------------------------------------------------| 
|-----------------------------------------------------------------|
|-----------------------------------------------------------------|
|-----------------------------------------------------------------| 
|-----------------------------------------------------------------|
|-2---0---2---0---5---0---5---0---2---0---2---0---5---0---5---0---|

Violin (not 100% sure on this part)
|-----------------------------------------------------------------| 
|-----------------------------------------------------------------|
|-------------------------------------------------7~------9---12~-|
|-7~------------------------------7~------------------------------| 
|-----------------------------------------------------------------|
|-----------------------------------------------------------------|

|-----------------------------------------------------------------| 
|-----------------------------10~---------------------------------|
|---------11~-----------------------------------------------------|
|-----------------7~----------------------------------------------| 
|-----------------------------------------------------------------|
|-----------------------------------------------------------------|


Ending
Violin (0:22)
2x
|---------------------------------| 
|---------------------------------|
|-4h5-4-------4h5-4-------4h5-4~--|
|---------------------------------| 
|---------------------------------|
|---------------------------------|

Violin II
|-------------------------10p8p7--| 
|---------------------------------|
|---------------------------------|
|---------------------------------| 
|---------------------------------|
|---------------------------------|

Rhythm Violin
|---------------------------------| 
|---------------------------------|
|---------------------------------|
|-0000000-----0-0000----------0000| 
|---------------------------------|
|---------------------------------|

Cello
|--------------------------------------| 
|--------------------------------------|
|--------------------------------------|
|--------------------------------------| 
|--------------------------------------|
|-2-------0-------5-------0-------2~---|

And yer done.
Добавлено: 24.06.2012
Другие материалы по этой песне:
  • Аккорды и текст

Страница создана 24.06.2012
http://primanota.ru/clint-mansell/ghosts-falling-chords.htm
Привет, Гость.
Предлагаем пройти революционный курс по гитаре.
Подарок от PrimaNota.Ru, забирай!