PrimaNota.ru - самый крупный в мире бесплатный архив песенных текстов, аккордов, табулатур и нот


Clint Mansell - The Last Man - таба, видео

Регистрация Запомнить меня
Войти через:  Facebook Google Twitter Vk Yandex Mail.ru

Clint Mansell - The Last Man - таба, видео

Печатать
Просмотров: 470
Авторы музыки: Clint Mansell

Song: The Last Man
Artist: Clint Mansell
Album: The Fountain Soundtrack
Tuning: Double Drop D (DADGBD)

 Intro Piano
|----------------------------------------------------------------------|
|---------------------------------------6------------------6-----------|
|------7----------------7---------------7-----------------7------------|
|------7---------------7-----------------------------------------------|
|-5---------------5--------------------------------------5-------------|
|----------------------------------0----------------0------------------|

|------3--------------------------------3------------------------------|
|------3---------------6---------------3------------------6------------|
|------3---------------7--------------3------------------7-------------|
|----------------------------------------------------------------------|
|-1--------------------5-----------1--------------------5--------------|
|-----------------0---------------------------------0------------------|

|-------3--------------------------------------------------------------|
|---------------------------------------------------6------------------|
|-----3----------------7---------------------------7-------------------|
|-------------3--------7------3-5-7------------------------------------|
|-1---------------5-----------------5-------------5--------------------|
|---------------------------------------------0------------------------|

|--------------------------------------------------------------------|
|--------------------------------------------------------------------|
|--------------------------------------------------------------------|
|-3-5-7---------------3-5-7-8-7---3-5-7------------------------------|
|-------5------------------------------------------------------------|
|--------------------------------------------------------------------|
Backing chords switches back and forth between BbM and Dm

Strings 1:03
|---------------------------------------------------|
|-----6-----------6-----------6----------6----------|
|-----7-----------7-----------7----------7----------|
|----------------------------------------7----------|
|-5-----------5-------------------------------------|
|--------------------------0---------0--------------|

|-----3------------------------3--------------------|
|-----------------6----------------------6----------|
|-----3-----------7------------3---------7----------|
|-----------------7----------------------7----------|
|-1------------------------1------------------------|
|-------------0----------------------0--------------|

|-----3------------------------3--------------------|
|-----------------6----------------------6----------|
|-----3-----------7------------3---------7----------|
|-----------------7----------------------7----------|
|-1------------------------1------------------------|
|-------------0----------------------0--------------|

Melody comes in 1:40
|--------------------------------------------------------------------|
|--------------------------------------------------------------------|
|--------------------------------------------------------------------|
|-3-5-7-----------3-5-7--------------3-5-7--8--7--3-5-7--------------|
|--------------------------------------------------------------------|
|--------------------------------------------------------------------|

|--------------------------------------------------------------------|
|------------------------------------6-8-10-----6-8-10---------------|
|--------------------------------------------------------------------|
|-----3-5-7----3-5-7-------------------------------------------------|
|--------------------------------------------------------------------|
|--------------------------------------------------------------------|

|--------------------------------------------------------------------|
|-6-8-10------6-8-10----------6-8-10--11--10--6-8-10-----------------|
|--------------------------------------------------------------------|
|--------------------------------------------------------------------|
|--------------------------------------------------------------------|
|--------------------------------------------------------------------|


At this point, the bottom voice hits a low C, causing me to write the non-melody 
(backing chords) in a Double Drop C (CGCFAC). Just to let you know.

2:55
|------------------------------------12------------10-12---12-10---------------------|
|-6-8-10--11--10--6-8-10--11--10----------10-11-10---------------10-8-10-11-10-------|
|------------------------------------------------------------------------------------|
|------------------------------------------------------------------------------------|
|------------------------------------------------------------------------------------|
|------------------------------------------------------------------------------------|

The Bass changes here (now in a Double Drop C tuning)
|-5-----------------------------------------5----------------------------------------|
|---------------------------3------------------------------3------------------5------|
|-5-------------------------4---------------5--------------4------------------4------|
|---------------------------0------------------------------0------------------2------|
|-3----------------------------------3-----------------------------------------------|
|---------------------0----------------------------0-------------------2-------------|



3:13
|----10-12------------10-12-----------10-12---15----12------10-12----|
|-11---------------10-------------11--------------------10-----------|
|--------------------------------------------------------------------|
|--------------------------------------------------------------------|
|--------------------------------------------------------------------|
|--------------------------------------------------------------------|
Goes back to BbM and Dm


|----10-12----15----(12)-----------10-12-----------10-12-------------|
|-11------------------------~10-11--------------10-------------------|
|--------------------------------------------------------------------|
|--------------------------------------------------------------------|
|--------------------------------------------------------------------|
|--------------------------------------------------------------------|
|
| (Double Drop C Tuning)
|---------5----------------------------------------------------------|
|---------------------------------------5--------------3-------------|
|---------5-----------------------------4--------------4-------------|
|---------------------------------------2--------------0-------------|
|--3-----------------------------------------------------------------|
|----------------------------0------2------------0-------------------|


|----10-12---15-----(12)---------------------------------------------|
|-11------------------------10---------------------------------------|
|--------------------------------------------------------------------|
|--------------------------------------------------------------------|
|--------------------------------------------------------------------|
|--------------------------------------------------------------------|
|
| (Still Double Drop C)
|--------- -------------------------------5--------------5------------|
|--------8----------------3---------------5---------------------------|
|--------9----------------4---------------4--------------5------------|
|--------9----------------0-------------------------------------------|
|--7------------------------------------------------3-----------------|
|-------------------0---------------2---------------------------------|

3:49
|---------------------------------------------------------------------------------|
|-6-8-10--------6-8-10------6-8-10------------6-8-10--11--10--6-8-10--11--10------|
|-----------------------------------------9---------------------------------------|
|---------------------------------------------------------------------------------|
|---------------------------------------------------------------------------------|
|---------------------------------------------------------------------------------|

Here we have the have Double Drop C chord progression with appropriate timing again.
|-12-----------------------------12-------------10-12---12-10---------------------|
|----10--11--10---------------10-----10--11--10---------------10-8-10-11-10-------|
|---------------------------------------------------------------------------------|
|---------------------------------------------------------------------------------|
|---------------------------------------------------------------------------------|
|---------------------------------------------------------------------------------|

4:45
|-15---19-------15-17----20---19--------15---20---19--------17---20---19----------|
|---------------------------------------------------------------------------------|
|------14-------------------------------------------------------------------------|
|---------------------------------------------------------------------------------|
|---------------------------------------------------------------------------------|
|---------------------------------------------------------------------------------|

Goes back to piano chords repeating something similar to the intro, and then yer done.
Добавлено: 09.07.2012
Другие материалы по этой песне:
  • Аккорды и текст

Страница создана 09.07.2012
http://primanota.ru/clint-mansell/the-last-man-chords.htm
Привет, Гость.
Предлагаем пройти революционный курс по гитаре.
Подарок от PrimaNota.Ru, забирай!