PrimaNota.ru - самый крупный в мире бесплатный архив песенных текстов, аккордов, табулатур и нот


Classical - Josquin Des Pres Mille Regretz - таба, видео

Регистрация Запомнить меня
Войти через:  Facebook Google Twitter Vk Yandex Mail.ru

Classical - Josquin Des Pres Mille Regretz - таба, видео

Печатать
Просмотров: 86
This is an arrangement of a beautiful song written around 1470, originally for 4 voices, 
here transcribed for solo guitar.

The metre is a fairly steady 2/2, but be musical with the phrasing. Also, try and let 
note ring for as long as possible.

A plus (+) sign means that note is tied to the following note, so you shouldn't strike 
next note on that string, just let it ring.


 E|-0---------------|-5-------5-------|-0---------------|-----------------|
 B|-----------------|---------6-------|-8-----------6-5-|-3-----1-3-------|
 G|-----------------|-5---------------|-----------------|-0-------0-------|
 D|-2---------------|-3-------0-------|-------------3---|-----------------|
 A|-----------------|-----------------|-7-----------5-3-|-2-----0-2-------|
 E|-----------------|-----------------|-----------------|-----------------|


E|-----8---8---8---|-7---7---5-------|---------8-------|-7-------5+------|
B|-----------------|-8-------6-------|-5-------5-------|-----------------|
G|-5---9---9---9---|-----------------|-5---------------|-7-------5-------|
D|-7-----------7---|-5-----------0---|-7---------------|-5-------3-------|
A|-0---------------|-----7---8-------|-----------------|-----------------|
E|-----------------|-----------------|-----------------|-----------------|


E|-5---4-2-4-------|---------8-------|-7-------5+------|-5---3-2-3-------|
B|-----------------|-5---------------|-3-------1-------|---------5-------|
G|-4---------------|-5---------------|-0-------2-------|-4---------------|
D|-2---------------|-----------------|-----------------|-2---------------|
A|-----------------|-----------------|-----------------|---------3-------|
E|-----------------|-----------------|-----------------|-----------------|


E|-5---5---5---5---|-3---3---1-------|-0---------------|-----------------|
B|-6-----------6---|-5---5---3-------|-1---5---5---5---|-5---5---3-------|
G|-----------------|-----------------|-----5---5---5---|-4---4---2-------|
D|-3-----------3---|---------0-------|-----7---7---7---|-5---5---3-------|
A|-----------------|-3---3-----------|-0---------------|-----------------|
E|-----------------|-----------------|-----------------|-----------------|


E|-7---------------|-8-------5-------|-7-------12------|-10----------8---|
B|---------8-------|-5-------5-------|-5---------------|-----------------|
G|-9-------9-------|-5-------5-------|-4-----------9---|-10----------9---|
D|-9---------------|-7-------7-------|-----------------|-----------------|
A|-7-------7-------|-----------------|-7---------------|-----------------|
E|-----------------|-----------------|-----------------|-----------------|


E|-7---5---4-------|-5---------------|-----------------|---------0-------|
B|---------5-------|-3-----------1---|-0---------------|-----------------|
G|-7---5---4-------|-2---------------|-----2---1-------|-2---------------|
D|---------2-------|-3-----------2---|-0---------------|-----------------|
A|-----------------|-----------------|-----3---2-------|-0---------------|
E|-----------------|-----------------|-----------------|-----------------|


E|-3-------3+------|-3-------3-------|-----10--10--10--|-8---------------|
B|-5---------------|-3-------0-------|-6---------------|-----10--10--10--|
G|-0---------------|-0-------0-------|-7-------7-------|-----------------|
D|---------2-------|-----------------|-0---------------|-7---------------|
A|-----------------|-----------------|-----------------|-----------------|
E|-----------------|-----------------|-----------------|-----------------|


E|-7-------5-------|-0---------------|---------10------|-8---------------|
B|-8-------6-------|-0---1---0---1+--|-1-0-------------|-----------------|
G|---------7-------|-----------------|-----------------|-5---------------|
D|---------0-------|-2-------2-------|-----7-------6---|-7-----------7---|
A|-----------------|-----0-------3+--|-3---------------|-0---------------|
E|-----------------|-----------------|-----10--7-------|-----------------|


E|-7-------5-------|-0---5---5---5---|-3-------1-------|-0---5---5---5---|
B|-8-------6-------|-----6---6---6---|-5-------3-------|-1---6---6---6---|
G|-----------------|-2---5---5---5---|-5-------2-----4-|-2---5---5---5---|
D|-5-----------0---|-----3---3---3---|---------0-------|-----3---3---3---|
A|-----7---8-------|-----------------|-3---------------|-0---------------|
E|-----------------|-----------------|-----------------|-----------------|


E|-3-------1-------|-0---0---3---0---|-3-------0-----2-|-3---------------|
B|-5-------3-------|-1---1---0---1---|-0-------1-------|-0---------------|
G|-5-------2-----4-|-2---2---0---2---|-0-------2-------|-0---------------|
D|---------0-------|---------2-------|-2---------------|-2---------------|
A|-3---------------|-0---0-------0---|---------0-------|-----------------|
E|-----------------|-----------------|-----------------|-0---------------|

Enjoy!
Peace, Lukewa
Добавлено: 14.11.2013
Другие материалы по этой песне:
  • Аккорды и текст

Страница создана 14.11.2013
http://primanota.ru/classical/josquin-des-pres-mille-regretz-chords.htm
Привет, Гость.
Предлагаем пройти революционный курс по гитаре.
Подарок от PrimaNota.Ru, забирай!