PrimaNota.ru - самый крупный в мире бесплатный архив песенных текстов, аккордов, табулатур и нот


Classical - Spanish Guitar - таба, видео

Регистрация Запомнить меня
Войти через:  Facebook Google Twitter Vk Yandex Mail.ru

Classical - Spanish Guitar - таба, видео

Печатать
Просмотров: 236
Уроки эстрадного вокала в Санкт-Петербурге
E|-0-3-1-0-0---------1---------0---------------0-----0---0---0---0---0---0-|
B|-1-------0-0-3-1-0-1-0-1-3-1---3-1-0---------------------0-----------0---|
G|-2-------1---------2-----------------2-0-------------1-----------1-------|
D|-2-------2---------3---------------------3-2-----2-----------2-----------|
A|-0-------2---------3-----------------------------------------------------|
E|---------0---------1-----------------------------------------------------|

E|---0---0---0---0---0-----0-----0---0---0---0---0---0---------|
B|-----1---0---------------------------0-----------0-----------|
G|-2-----------2---0---------------1-----------1---------------|
D|---------------------3-2-----2-----------2-------------------|
A|-------------------------------------------------------------|
E|-------------------------------------------------------------|

E|---0---0---0---0---0-----0--0--0---|
B|-----1---0------------------0--0---|
G|-2-----------2---0----------2--1---|
D|---------------------3-2----3--2---|
A|----------------------------3--2---|
E|-------------------------------0---|
Добавлено: 21.10.2013
Другие материалы по этой песне:
  • Аккорды и текст

Страница создана 21.10.2013
http://primanota.ru/classical/spanish-guitar-chords.htm
Привет, Гость.
Предлагаем пройти революционный курс по гитаре.
Подарок от PrimaNota.Ru, забирай!