PrimaNota.ru - самый крупный в мире бесплатный архив песенных текстов, аккордов, табулатур и нот


Classical - Autumn Leaves - таба, видео

Регистрация Запомнить меня
Войти через:  Facebook Google Twitter Vk Yandex Mail.ru

Classical - Autumn Leaves - таба, видео

Печатать
Просмотров: 57
Autumn Leaves 

for Classical guitar



           Dm            G           Cmaj7           Fmaj7
e|---------1--|-------------|---------0---|----0------------|
B|----0-1--3--|----3-----0--|------0--0---|----0------------|
G|--2------2--|--2---2---0--|--0-2----0---|--0---0----2-----|
D|---------0--|----------0--|---------2---|-----------2-----|
A|------------|----------2--|---------3---|-----------------|
E|------------|----------3--|-------------|-----------1-----|

                                                                
           Dm6            E             Am           
e|-------------|-------------|----------0--------------|
B|----------3--|----3-----0--|----------1--------------|
G|----0-2---2--|----2-----1--|------1---2--------------|
D|--3-------3--|--3---3---2--|--2-4-----2----2-3-0-2---|
A|----------2--|----------2--|----------0--------------|
E|-------------|----------0--|-------------------------|



           Dm            G           Cmaj7           Fmaj7
e|---------1--|-------------|---------0---|----0------------|
B|----0-1--3--|----3-1---0--|------0--0---|----0------------|
G|--2------2--|--2-------0--|--0-2----0---|--0---0----2-----|
D|---------0--|----------0--|---------2---|-----------2-----|
A|------------|----------2--|---------3---|-----------------|
E|------------|----------3--|-------------|-----------1-----|

                                                                
           Dm6            E             Am           
e|-------------|-------------|----------0--------------|
B|----------3--|----3-----0--|--0-3-1---1--------------|
G|----0-2---2--|----2-----1--|----------2--------------|
D|--3-------3--|--3---3---2--|----------2----2-3-0-2---|
A|----------2--|----------2--|----------0--------------|
E|-------------|----------0--|-------------------------|



           E                     Am
e|---------------------|------------|---------------|
B|---------0----0---0--|--0---0--1--|----1----------|
G|--2-1-2-------1---1--|----2----2--|----2----------|
D|--------------2---2--|---------2--|--2------------|
A|------------2---2----|---------0--|---------------|
E|---------0-----------|------------|-------3-2-----|




           G                         Cmaj7
e|---------------------3--|-------1---0---------------|
B|--1-0-1--3--------------|-----0-----0-------0-------|
G|---------0----0---0-----|-----------0-----0---0-2---|
D|---------0------0-------|--0--------2---------------|
A|---------X--------------|-----------3---------------|
E|---------3--------------|---------------------------|




           Dm7         Dm6          E              Am
e|--0---0--1----1---|------------|-----|--1-0--|---0-------------|
B|----4----1------1-|--3----3----|--0--|-------|---1-------------|
G|---------2--2-----|--2--2---2--|--1--|-------|---2-------------|
D|---------0--------|--3---------|--2--|-------|---2-------------|
A|------------------|--2---------|--2--|-------|---0----0---0----|
E|------------------|------------|--0--|-------|----------3---2--|




           F6            E              Am          Am
e|--------------------------------------0-----------0------|
B|---------3--------1----0-------1------1-----------1------|
G|--2-1-2---------2--------------1------2-----------2------|
D|--------------0-------------0----2----2---2-3-0---2------|
A|--------------------------------------0-----------0------|
E|---------1-------------0--------------------------0------|
Добавлено: 02.01.2016
Другие материалы по этой песне:
  • Аккорды и текст

Страница создана 02.01.2016
http://primanota.ru/classical/autumn-leaves-chords.htm
Привет, Гость.
Предлагаем пройти революционный курс по гитаре.
Подарок от PrimaNota.Ru, забирай!